  0
SECTION
  2
HEADER
  9
$ACADVER
  1
AC1015
  9
$ACADMAINTVER
 70
     6
  9
$DWGCODEPAGE
  3
ANSI_1254
  9
$INSBASE
 10
0.0
 20
0.0
 30
0.0
  9
$EXTMIN
 10
0.0
 20
0.0
 30
0.0
  9
$EXTMAX
 10
279.4
 20
215.9
 30
0.0
  9
$LIMMIN
 10
0.0
 20
0.0
  9
$LIMMAX
 10
279.4
 20
215.9
  9
$ORTHOMODE
 70
     0
  9
$REGENMODE
 70
     1
  9
$FILLMODE
 70
     1
  9
$QTEXTMODE
 70
     0
  9
$MIRRTEXT
 70
     1
  9
$LTSCALE
 40
1.0
  9
$ATTMODE
 70
     1
  9
$TEXTSIZE
 40
3.5
  9
$TRACEWID
 40
1.0
  9
$TEXTSTYLE
  7
Standard
  9
$CLAYER
  8
0
  9
$CELTYPE
  6
ByLayer
  9
$CECOLOR
 62
   256
  9
$CELTSCALE
 40
1.0
  9
$DISPSILH
 70
     0
  9
$DIMSCALE
 40
1.0
  9
$DIMASZ
 40
3.5
  9
$DIMEXO
 40
1.0
  9
$DIMDLI
 40
3.75
  9
$DIMRND
 40
0.0
  9
$DIMDLE
 40
0.0
  9
$DIMEXE
 40
1.0
  9
$DIMTP
 40
0.0
  9
$DIMTM
 40
0.0
  9
$DIMTXT
 40
3.5
  9
$DIMCEN
 40
2.5
  9
$DIMTSZ
 40
0.0
  9
$DIMTOL
 70
     0
  9
$DIMLIM
 70
     0
  9
$DIMTIH
 70
     1
  9
$DIMTOH
 70
     1
  9
$DIMSE1
 70
     0
  9
$DIMSE2
 70
     0
  9
$DIMTAD
 70
     1
  9
$DIMZIN
 70
     0
  9
$DIMBLK
  1

  9
$DIMASO
 70
     1
  9
$DIMSHO
 70
     1
  9
$DIMPOST
  1

  9
$DIMAPOST
  1

  9
$DIMALT
 70
     0
  9
$DIMALTD
 70
     3
  9
$DIMALTF
 40
0.0393700787
  9
$DIMLFAC
 40
1.0
  9
$DIMTOFL
 70
     1
  9
$DIMTVP
 40
0.0
  9
$DIMTIX
 70
     0
  9
$DIMSOXD
 70
     0
  9
$DIMSAH
 70
     0
  9
$DIMBLK1
  1

  9
$DIMBLK2
  1

  9
$DIMSTYLE
  2
ISO-25
  9
$DIMCLRD
 70
     0
  9
$DIMCLRE
 70
     0
  9
$DIMCLRT
 70
     0
  9
$DIMTFAC
 40
1.0
  9
$DIMGAP
 40
1.524
  9
$DIMJUST
 70
     0
  9
$DIMSD1
 70
     0
  9
$DIMSD2
 70
     0
  9
$DIMTOLJ
 70
     0
  9
$DIMTZIN
 70
     0
  9
$DIMALTZ
 70
     0
  9
$DIMALTTZ
 70
     0
  9
$DIMUPT
 70
     0
  9
$DIMDEC
 70
     2
  9
$DIMTDEC
 70
     2
  9
$DIMALTU
 70
     2
  9
$DIMALTTD
 70
     3
  9
$DIMTXSTY
  7
Standard
  9
$DIMAUNIT
 70
     0
  9
$DIMADEC
 70
     2
  9
$DIMALTRND
 40
0.0
  9
$DIMAZIN
 70
     0
  9
$DIMDSEP
 70
    44
  9
$DIMATFIT
 70
     3
  9
$DIMFRAC
 70
     0
  9
$DIMLDRBLK
  1

  9
$DIMLUNIT
 70
     2
  9
$DIMLWD
 70
    -2
  9
$DIMLWE
 70
    -2
  9
$DIMTMOVE
 70
     0
  9
$LUNITS
 70
     2
  9
$LUPREC
 70
     2
  9
$SKETCHINC
 40
1.0
  9
$FILLETRAD
 40
10.0
  9
$AUNITS
 70
     0
  9
$AUPREC
 70
     2
  9
$MENU
  1
.
  9
$ELEVATION
 40
0.0
  9
$PELEVATION
 40
0.0
  9
$THICKNESS
 40
0.0
  9
$LIMCHECK
 70
     0
  9
$CHAMFERA
 40
0.0
  9
$CHAMFERB
 40
0.0
  9
$CHAMFERC
 40
0.0
  9
$CHAMFERD
 40
0.0
  9
$SKPOLY
 70
     0
  9
$TDCREATE
 40
2460390.355063565
  9
$TDUCREATE
 40
2460390.230063565
  9
$TDUPDATE
 40
2460390.35506375
  9
$TDUUPDATE
 40
2460390.23006375
  9
$TDINDWG
 40
0.0000000116
  9
$TDUSRTIMER
 40
0.0000000116
  9
$USRTIMER
 70
     1
  9
$ANGBASE
 50
0.0
  9
$ANGDIR
 70
     0
  9
$PDMODE
 70
     0
  9
$PDSIZE
 40
-1.0
  9
$PLINEWID
 40
0.0
  9
$SPLFRAME
 70
     0
  9
$SPLINETYPE
 70
     6
  9
$SPLINESEGS
 70
     8
  9
$HANDSEED
  5
10F
  9
$SURFTAB1
 70
     6
  9
$SURFTAB2
 70
     6
  9
$SURFTYPE
 70
     6
  9
$SURFU
 70
     6
  9
$SURFV
 70
     6
  9
$UCSBASE
  2

  9
$UCSNAME
  2

  9
$UCSORG
 10
0.0
 20
0.0
 30
0.0
  9
$UCSXDIR
 10
1.0
 20
0.0
 30
0.0
  9
$UCSYDIR
 10
0.0
 20
1.0
 30
0.0
  9
$UCSORTHOREF
  2

  9
$UCSORTHOVIEW
 70
     0
  9
$UCSORGTOP
 10
0.0
 20
0.0
 30
0.0
  9
$UCSORGBOTTOM
 10
0.0
 20
0.0
 30
0.0
  9
$UCSORGLEFT
 10
0.0
 20
0.0
 30
0.0
  9
$UCSORGRIGHT
 10
0.0
 20
0.0
 30
0.0
  9
$UCSORGFRONT
 10
0.0
 20
0.0
 30
0.0
  9
$UCSORGBACK
 10
0.0
 20
0.0
 30
0.0
  9
$PUCSBASE
  2

  9
$PUCSNAME
  2

  9
$PUCSORG
 10
0.0
 20
0.0
 30
0.0
  9
$PUCSXDIR
 10
1.0
 20
0.0
 30
0.0
  9
$PUCSYDIR
 10
0.0
 20
1.0
 30
0.0
  9
$PUCSORTHOREF
  2

  9
$PUCSORTHOVIEW
 70
     0
  9
$PUCSORGTOP
 10
0.0
 20
0.0
 30
0.0
  9
$PUCSORGBOTTOM
 10
0.0
 20
0.0
 30
0.0
  9
$PUCSORGLEFT
 10
0.0
 20
0.0
 30
0.0
  9
$PUCSORGRIGHT
 10
0.0
 20
0.0
 30
0.0
  9
$PUCSORGFRONT
 10
0.0
 20
0.0
 30
0.0
  9
$PUCSORGBACK
 10
0.0
 20
0.0
 30
0.0
  9
$USERI1
 70
     0
  9
$USERI2
 70
     0
  9
$USERI3
 70
     0
  9
$USERI4
 70
     0
  9
$USERI5
 70
     0
  9
$USERR1
 40
0.0
  9
$USERR2
 40
0.0
  9
$USERR3
 40
0.0
  9
$USERR4
 40
0.0
  9
$USERR5
 40
0.0
  9
$WORLDVIEW
 70
     1
  9
$SHADEDGE
 70
     3
  9
$SHADEDIF
 70
    70
  9
$TILEMODE
 70
     1
  9
$MAXACTVP
 70
    64
  9
$PINSBASE
 10
0.0
 20
0.0
 30
0.0
  9
$PLIMCHECK
 70
     0
  9
$PEXTMIN
 10
1.0000000000E+20
 20
1.0000000000E+20
 30
1.0000000000E+20
  9
$PEXTMAX
 10
-1.0000000000E+20
 20
-1.0000000000E+20
 30
-1.0000000000E+20
  9
$PLIMMIN
 10
0.0
 20
0.0
  9
$PLIMMAX
 10
420.0
 20
297.0
  9
$UNITMODE
 70
     0
  9
$VISRETAIN
 70
     1
  9
$PLINEGEN
 70
     0
  9
$PSLTSCALE
 70
     1
  9
$TREEDEPTH
 70
  3020
  9
$CMLSTYLE
  2
Standard
  9
$CMLJUST
 70
     0
  9
$CMLSCALE
 40
20.0
  9
$PROXYGRAPHICS
 70
     1
  9
$MEASUREMENT
 70
     1
  9
$CELWEIGHT
370
    -1
  9
$ENDCAPS
280
     0
  9
$JOINSTYLE
280
     0
  9
$LWDISPLAY
290
     1
  9
$INSUNITS
 70
     4
  9
$HYPERLINKBASE
  1

  9
$STYLESHEET
  1

  9
$XEDIT
290
     1
  9
$CEPSNTYPE
380
     0
  9
$PSTYLEMODE
290
     1
  9
$FINGERPRINTGUID
  2
{328b79e7-e17e-46da-851b-e30bfdf117e4}
  9
$VERSIONGUID
  2
{FAEB1C32-E019-11D5-929B-00C0DF256EC4}
  9
$EXTNAMES
290
     1
  9
$PSVPSCALE
 40
0.0
  9
$OLESTARTUP
290
     0
  0
ENDSEC
  0
SECTION
  2
CLASSES
  0
CLASS
  1
ACDBDICTIONARYWDFLT
  2
AcDbDictionaryWithDefault
  3
ObjectDBX Classes
 90
        0
280
     0
281
     0
  0
CLASS
  1
VISUALSTYLE
  2
AcDbVisualStyle
  3
ObjectDBX Classes
 90
     4095
280
     0
281
     0
  0
CLASS
  1
MATERIAL
  2
AcDbMaterial
  3
ObjectDBX Classes
 90
     1153
280
     0
281
     0
  0
CLASS
  1
SCALE
  2
AcDbScale
  3
ObjectDBX Classes
 90
     1153
280
     0
281
     0
  0
CLASS
  1
TABLESTYLE
  2
AcDbTableStyle
  3
ObjectDBX Classes
 90
     4095
280
     0
281
     0
  0
CLASS
  1
MLEADERSTYLE
  2
AcDbMLeaderStyle
  3
ACDB_MLEADERSTYLE_CLASS
 90
     4095
280
     0
281
     0
  0
CLASS
  1
SUN
  2
AcDbSun
  3
SCENEOE
 90
     1153
280
     0
281
     0
  0
CLASS
  1
ACDBPLACEHOLDER
  2
AcDbPlaceHolder
  3
ObjectDBX Classes
 90
        0
280
     0
281
     0
  0
CLASS
  1
LAYOUT
  2
AcDbLayout
  3
ObjectDBX Classes
 90
        0
280
     0
281
     0
  0
ENDSEC
  0
SECTION
  2
TABLES
  0
TABLE
  2
VPORT
  5
8
330
0
100
AcDbSymbolTable
 70
     1
  0
VPORT
  5
29
330
8
100
AcDbSymbolTableRecord
100
AcDbViewportTableRecord
  2
*Active
 70
     0
 10
0.0
 20
0.0
 11
1.0
 21
1.0
 12
139.7
 22
107.95
 13
0.0
 23
0.0
 14
10.0
 24
10.0
 15
10.0
 25
10.0
 16
0.0
 26
0.0
 36
1.0
 17
0.0
 27
0.0
 37
0.0
 40
215.9
 41
1.2941176471
 42
50.0
 43
0.0
 44
0.0
 50
0.0
 51
0.0
 71
     0
 72
  2000
 73
     1
 74
     3
 75
     0
 76
     0
 77
     0
 78
     0
281
     0
 65
     1
110
0.0
120
0.0
130
0.0
111
1.0
121
0.0
131
0.0
112
0.0
122
1.0
132
0.0
 79
     0
146
0.0
  0
ENDTAB
  0
TABLE
  2
LTYPE
  5
5
330
0
100
AcDbSymbolTable
 70
     6
  0
LTYPE
  5
14
330
5
100
AcDbSymbolTableRecord
100
AcDbLinetypeTableRecord
  2
ByBlock
 70
     0
  3

 72
    65
 73
     0
 40
0.0
  0
LTYPE
  5
15
330
5
100
AcDbSymbolTableRecord
100
AcDbLinetypeTableRecord
  2
ByLayer
 70
     0
  3

 72
    65
 73
     0
 40
0.0
  0
LTYPE
  5
16
330
5
100
AcDbSymbolTableRecord
100
AcDbLinetypeTableRecord
  2
Continuous
 70
     0
  3
Solid line
 72
    65
 73
     0
 40
0.0
  0
LTYPE
  5
6E
330
5
100
AcDbSymbolTableRecord
100
AcDbLinetypeTableRecord
  2
HIDDEN
 70
     0
  3
Hidden __ __ __ __ __ __ __ __ __ __ __ __ __ __
 72
    65
 73
     2
 40
1.905
 49
1.27
 74
     0
 49
-0.635
 74
     0
  0
LTYPE
  5
6F
330
5
100
AcDbSymbolTableRecord
100
AcDbLinetypeTableRecord
  2
PHANTOM
 70
     0
  3
Phantom ______  __  __  ______  __  __  ______
 72
    65
 73
     6
 40
12.7
 49
6.35
 74
     0
 49
-1.27
 74
     0
 49
1.27
 74
     0
 49
-1.27
 74
     0
 49
1.27
 74
     0
 49
-1.27
 74
     0
  0
LTYPE
  5
70
330
5
100
AcDbSymbolTableRecord
100
AcDbLinetypeTableRecord
  2
CENTER
 70
     0
  3
Center ____ _ ____ _ ____ _ ____ _ ____ _ ____
 72
    65
 73
     4
 40
10.16
 49
6.35
 74
     0
 49
-1.27
 74
     0
 49
1.27
 74
     0
 49
-1.27
 74
     0
  0
LTYPE
  5
71
330
5
100
AcDbSymbolTableRecord
100
AcDbLinetypeTableRecord
  2
CENTERX2
 70
     0
  3
Center (2x) ________  __  ________  __  _____
 72
    65
 73
     4
 40
20.32
 49
12.7
 74
     0
 49
-2.54
 74
     0
 49
2.54
 74
     0
 49
-2.54
 74
     0
  0
LTYPE
  5
72
330
5
100
AcDbSymbolTableRecord
100
AcDbLinetypeTableRecord
  2
DOT2
 70
     0
  3
Dot (.5x) ........................................
 72
    65
 73
     2
 40
0.635
 49
0.0
 74
     0
 49
-0.635
 74
     0
  0
ENDTAB
  0
TABLE
  2
LAYER
  5
2
330
0
100
AcDbSymbolTable
 70
    17
  0
LAYER
  5
10
330
2
100
AcDbSymbolTableRecord
100
AcDbLayerTableRecord
  2
0
 70
     0
 62
     7
  6
Continuous
370
    -3
390
F
  0
LAYER
  5
73
330
2
100
AcDbSymbolTableRecord
100
AcDbLayerTableRecord
  2
FORMAT
 70
     0
 62
     7
  6
Continuous
370
    -3
390
F
  0
LAYER
  5
74
330
2
100
AcDbSymbolTableRecord
100
AcDbLayerTableRecord
  2
YARDIMCI_GEOMETRI
 70
     0
 62
    -6
  6
Continuous
290
     0
370
    -3
390
F
  0
LAYER
  5
75
330
2
100
AcDbSymbolTableRecord
100
AcDbLayerTableRecord
  2
SAYFA_CERCEVESI
 70
     0
 62
     7
  6
Continuous
370
    25
390
F
  0
LAYER
  5
76
330
2
100
AcDbSymbolTableRecord
100
AcDbLayerTableRecord
  2
ANTET
 70
     0
 62
     7
  6
Continuous
370
    -3
390
F
  0
LAYER
  5
77
330
2
100
AcDbSymbolTableRecord
100
AcDbLayerTableRecord
  2
OLCU
 70
     0
 62
   150
  6
Continuous
370
    -3
390
F
  0
LAYER
  5
78
330
2
100
AcDbSymbolTableRecord
100
AcDbLayerTableRecord
  2
METIN
 70
     0
 62
    96
  6
Continuous
370
    -3
390
F
  0
LAYER
  5
79
330
2
100
AcDbSymbolTableRecord
100
AcDbLayerTableRecord
  2
BALON
 70
     0
 62
     5
  6
Continuous
370
    -3
390
F
  0
LAYER
  5
7A
330
2
100
AcDbSymbolTableRecord
100
AcDbLayerTableRecord
  2
VURGU
 70
     0
 62
     7
  6
Continuous
370
    -3
390
F
  0
LAYER
  5
7B
330
2
100
AcDbSymbolTableRecord
100
AcDbLayerTableRecord
  2
SILIK
 70
     0
 62
     7
  6
Continuous
370
    -3
390
F
  0
LAYER
  5
7C
330
2
100
AcDbSymbolTableRecord
100
AcDbLayerTableRecord
  2
MODEL
 70
     0
 62
     7
  6
Continuous
370
    -3
390
F
  0
LAYER
  5
7D
330
2
100
AcDbSymbolTableRecord
100
AcDbLayerTableRecord
  2
DETAYLANDıRMA
 70
     0
 62
   190
  6
Continuous
370
    -3
390
F
  0
LAYER
  5
7E
330
2
100
AcDbSymbolTableRecord
100
AcDbLayerTableRecord
  2
TOLERANS
 70
     0
 62
   230
  6
Continuous
370
    -3
390
F
  0
LAYER
  5
7F
330
2
100
AcDbSymbolTableRecord
100
AcDbLayerTableRecord
  2
MERKEZ_CIZGILERI
 70
     0
 62
    30
  6
Continuous
370
    -3
390
F
  0
LAYER
  5
80
330
2
100
AcDbSymbolTableRecord
100
AcDbLayerTableRecord
  2
KESIT-DETAY_CIZGILERI
 70
     0
 62
     7
  6
Continuous
370
    -3
390
F
  0
LAYER
  5
81
330
2
100
AcDbSymbolTableRecord
100
AcDbLayerTableRecord
  2
\U+041E\U+0421\U+0415\U+0412\U+042B\U+0415
 70
     0
 62
     7
  6
Continuous
370
    -3
390
F
  0
LAYER
  5
82
330
2
100
AcDbSymbolTableRecord
100
AcDbLayerTableRecord
  2
\U+0412\U+041E\U+0414\U+042F\U+041D\U+042B\U+0415_\U+0417\U+041D\U+0410\U+041A\U+0418
 70
     0
 62
    11
  6
Continuous
370
    -3
390
F
  0
ENDTAB
  0
TABLE
  2
STYLE
  5
3
330
0
100
AcDbSymbolTable
 70
     1
  0
STYLE
  5
11
330
3
100
AcDbSymbolTableRecord
100
AcDbTextStyleTableRecord
  2
Standard
 70
     0
 40
0.0
 41
1.0
 50
0.0
 71
     0
 42
3.5
  3
txt
  4

  0
ENDTAB
  0
TABLE
  2
VIEW
  5
6
330
0
100
AcDbSymbolTable
 70
     0
  0
ENDTAB
  0
TABLE
  2
UCS
  5
7
330
0
100
AcDbSymbolTable
 70
     0
  0
ENDTAB
  0
TABLE
  2
APPID
  5
9
330
0
100
AcDbSymbolTable
 70
     1
  0
APPID
  5
12
330
9
100
AcDbSymbolTableRecord
100
AcDbRegAppTableRecord
  2
ACAD
 70
     0
  0
ENDTAB
  0
TABLE
  2
DIMSTYLE
  5
A
330
0
100
AcDbSymbolTable
 70
     1
100
AcDbDimStyleTable
  0
DIMSTYLE
105
27
330
A
100
AcDbSymbolTableRecord
100
AcDbDimStyleTableRecord
  2
ISO-25
 70
     0
 41
2.5
 42
0.625
 43
3.75
 44
1.25
 73
     0
 74
     0
 77
     1
 78
     8
140
2.5
141
2.5
143
0.0393700787
147
0.625
171
     3
172
     1
178
     0
271
     2
272
     2
274
     3
278
    44
283
     0
284
     8
340
11
  0
ENDTAB
  0
TABLE
  2
BLOCK_RECORD
  5
1
330
0
100
AcDbSymbolTable
 70
     4
  0
BLOCK_RECORD
  5
1F
330
1
100
AcDbSymbolTableRecord
100
AcDbBlockTableRecord
  2
*Model_Space
340
22
  0
BLOCK_RECORD
  5
1B
330
1
100
AcDbSymbolTableRecord
100
AcDbBlockTableRecord
  2
*Paper_Space
340
1E
  0
BLOCK_RECORD
  5
23
330
1
100
AcDbSymbolTableRecord
100
AcDbBlockTableRecord
  2
*Paper_Space0
340
26
  0
BLOCK_RECORD
  5
8C
330
1
100
AcDbSymbolTableRecord
100
AcDbBlockTableRecord
  2
SW_CENTERMARKSYMBOL_0
340
0
102
{BLKREFS
331
97
102
}
  0
BLOCK_RECORD
  5
DE
330
1
100
AcDbSymbolTableRecord
100
AcDbBlockTableRecord
  2
SW_CENTERMARKSYMBOL_1
340
0
102
{BLKREFS
331
E9
102
}
  0
BLOCK_RECORD
  5
EA
330
1
100
AcDbSymbolTableRecord
100
AcDbBlockTableRecord
  2
SW_CENTERMARKSYMBOL_2
340
0
102
{BLKREFS
331
F5
102
}
  0
ENDTAB
  0
ENDSEC
  0
SECTION
  2
BLOCKS
  0
BLOCK
  5
20
330
1F
100
AcDbEntity
  8
0
100
AcDbBlockBegin
  2
*Model_Space
 70
     0
 10
0.0
 20
0.0
 30
0.0
  3
*Model_Space
  1

  0
ENDBLK
  5
21
330
1F
100
AcDbEntity
  8
0
100
AcDbBlockEnd
  0
BLOCK
  5
1C
330
1B
100
AcDbEntity
 67
     1
  8
0
100
AcDbBlockBegin
  2
*Paper_Space
 70
     0
 10
0.0
 20
0.0
 30
0.0
  3
*Paper_Space
  1

  0
ENDBLK
  5
1D
330
1B
100
AcDbEntity
 67
     1
  8
0
100
AcDbBlockEnd
  0
BLOCK
  5
24
330
23
100
AcDbEntity
  8
0
100
AcDbBlockBegin
  2
*Paper_Space0
 70
     0
 10
0.0
 20
0.0
 30
0.0
  3
*Paper_Space0
  1

  0
ENDBLK
  5
25
330
23
100
AcDbEntity
  8
0
100
AcDbBlockEnd
  0
BLOCK
  5
8D
330
8C
100
AcDbEntity
  8
0
100
AcDbBlockBegin
  2
SW_CENTERMARKSYMBOL_0
 70
     0
 10
0.0
 20
0.0
 30
0.0
  3
SW_CENTERMARKSYMBOL_0
  1

  0
LINE
  5
8F
330
8C
100
AcDbEntity
  8
FORMAT
 62
     0
100
AcDbLine
 10
0.0
 20
0.0
 30
0.0
 11
0.0
 21
2.5
 31
0.0
  0
LINE
  5
90
330
8C
100
AcDbEntity
  8
FORMAT
 62
     0
100
AcDbLine
 10
0.0
 20
0.0
 30
0.0
 11
-2.5
 21
0.0
 31
0.0
  0
LINE
  5
91
330
8C
100
AcDbEntity
  8
FORMAT
 62
     0
100
AcDbLine
 10
0.0
 20
0.0
 30
0.0
 11
0.0
 21
-2.5
 31
0.0
  0
LINE
  5
92
330
8C
100
AcDbEntity
  8
FORMAT
 62
     0
100
AcDbLine
 10
0.0
 20
0.0
 30
0.0
 11
2.5
 21
0.0
 31
0.0
  0
LINE
  5
93
330
8C
100
AcDbEntity
  8
FORMAT
 62
     0
100
AcDbLine
 10
0.0
 20
5.0
 30
0.0
 11
0.0
 21
82.5
 31
0.0
  0
LINE
  5
94
330
8C
100
AcDbEntity
  8
FORMAT
 62
     0
100
AcDbLine
 10
-5.0
 20
0.0
 30
0.0
 11
-82.5
 21
0.0
 31
0.0
  0
LINE
  5
95
330
8C
100
AcDbEntity
  8
FORMAT
 62
     0
100
AcDbLine
 10
0.0
 20
-5.0
 30
0.0
 11
0.0
 21
-82.5
 31
0.0
  0
LINE
  5
96
330
8C
100
AcDbEntity
  8
FORMAT
 62
     0
100
AcDbLine
 10
5.0
 20
0.0
 30
0.0
 11
82.5
 21
0.0
 31
0.0
  0
ENDBLK
  5
8E
330
8C
100
AcDbEntity
  8
0
100
AcDbBlockEnd
  0
BLOCK
  5
DF
330
DE
100
AcDbEntity
  8
0
100
AcDbBlockBegin
  2
SW_CENTERMARKSYMBOL_1
 70
     0
 10
0.0
 20
0.0
 30
0.0
  3
SW_CENTERMARKSYMBOL_1
  1

  0
LINE
  5
E1
330
DE
100
AcDbEntity
  8
FORMAT
 62
     0
100
AcDbLine
 10
0.0
 20
0.0
 30
0.0
 11
0.0
 21
2.5
 31
0.0
  0
LINE
  5
E2
330
DE
100
AcDbEntity
  8
FORMAT
 62
     0
100
AcDbLine
 10
0.0
 20
0.0
 30
0.0
 11
-2.5
 21
0.0
 31
0.0
  0
LINE
  5
E3
330
DE
100
AcDbEntity
  8
FORMAT
 62
     0
100
AcDbLine
 10
0.0
 20
0.0
 30
0.0
 11
0.0
 21
-2.5
 31
0.0
  0
LINE
  5
E4
330
DE
100
AcDbEntity
  8
FORMAT
 62
     0
100
AcDbLine
 10
0.0
 20
0.0
 30
0.0
 11
2.5
 21
0.0
 31
0.0
  0
LINE
  5
E5
330
DE
100
AcDbEntity
  8
FORMAT
 62
     0
100
AcDbLine
 10
0.0
 20
5.0
 30
0.0
 11
0.0
 21
9.5
 31
0.0
  0
LINE
  5
E6
330
DE
100
AcDbEntity
  8
FORMAT
 62
     0
100
AcDbLine
 10
-5.0
 20
0.0
 30
0.0
 11
-9.5
 21
0.0
 31
0.0
  0
LINE
  5
E7
330
DE
100
AcDbEntity
  8
FORMAT
 62
     0
100
AcDbLine
 10
0.0
 20
-5.0
 30
0.0
 11
0.0
 21
-9.5
 31
0.0
  0
LINE
  5
E8
330
DE
100
AcDbEntity
  8
FORMAT
 62
     0
100
AcDbLine
 10
5.0
 20
0.0
 30
0.0
 11
9.5
 21
0.0
 31
0.0
  0
ENDBLK
  5
E0
330
DE
100
AcDbEntity
  8
0
100
AcDbBlockEnd
  0
BLOCK
  5
EB
330
EA
100
AcDbEntity
  8
0
100
AcDbBlockBegin
  2
SW_CENTERMARKSYMBOL_2
 70
     0
 10
0.0
 20
0.0
 30
0.0
  3
SW_CENTERMARKSYMBOL_2
  1

  0
LINE
  5
ED
330
EA
100
AcDbEntity
  8
FORMAT
 62
     0
100
AcDbLine
 10
0.0
 20
0.0
 30
0.0
 11
0.0
 21
2.5
 31
0.0
  0
LINE
  5
EE
330
EA
100
AcDbEntity
  8
FORMAT
 62
     0
100
AcDbLine
 10
0.0
 20
0.0
 30
0.0
 11
-2.5
 21
0.0
 31
0.0
  0
LINE
  5
EF
330
EA
100
AcDbEntity
  8
FORMAT
 62
     0
100
AcDbLine
 10
0.0
 20
0.0
 30
0.0
 11
0.0
 21
-2.5
 31
0.0
  0
LINE
  5
F0
330
EA
100
AcDbEntity
  8
FORMAT
 62
     0
100
AcDbLine
 10
0.0
 20
0.0
 30
0.0
 11
2.5
 21
0.0
 31
0.0
  0
LINE
  5
F1
330
EA
100
AcDbEntity
  8
FORMAT
 62
     0
100
AcDbLine
 10
0.0
 20
5.0
 30
0.0
 11
0.0
 21
9.5
 31
0.0
  0
LINE
  5
F2
330
EA
100
AcDbEntity
  8
FORMAT
 62
     0
100
AcDbLine
 10
-5.0
 20
0.0
 30
0.0
 11
-9.5
 21
0.0
 31
0.0
  0
LINE
  5
F3
330
EA
100
AcDbEntity
  8
FORMAT
 62
     0
100
AcDbLine
 10
0.0
 20
-5.0
 30
0.0
 11
0.0
 21
-9.5
 31
0.0
  0
LINE
  5
F4
330
EA
100
AcDbEntity
  8
FORMAT
 62
     0
100
AcDbLine
 10
5.0
 20
0.0
 30
0.0
 11
9.5
 21
0.0
 31
0.0
  0
ENDBLK
  5
EC
330
EA
100
AcDbEntity
  8
0
100
AcDbBlockEnd
  0
ENDSEC
  0
SECTION
  2
ENTITIES
  0
LINE
  5
83
330
1F
100
AcDbEntity
  8
0
  6
Continuous
 62
     7
370
    25
100
AcDbLine
 10
149.5110777177
 20
189.2212790461
 30
0.0
 11
149.5110777177
 21
203.9777423832
 31
0.0
  0
LINE
  5
84
330
1F
100
AcDbEntity
  8
0
  6
Continuous
 62
     7
370
    25
100
AcDbLine
 10
135.5110777177
 20
203.9777423832
 30
0.0
 11
135.5110777177
 21
189.2145164211
 31
0.0
  0
CIRCLE
  5
85
330
1F
100
AcDbEntity
  8
0
  6
Continuous
 62
     7
370
    25
100
AcDbCircle
 10
142.5110777177
 20
104.2277423832
 30
0.0
 40
85.0
  0
ARC
  5
86
330
1F
100
AcDbEntity
  8
0
  6
Continuous
 62
     7
370
    25
100
AcDbCircle
 10
142.5110777177
 20
104.2277423832
 30
0.0
 40
85.99999999999986
100
AcDbArc
 50
94.6687749341
 51
180.0
  0
ARC
  5
87
330
1F
100
AcDbEntity
  8
0
  6
Continuous
 62
     7
370
    25
100
AcDbCircle
 10
142.5110777177
 20
104.2277423832
 30
0.0
 40
85.99999999999986
100
AcDbArc
 50
180.0
 51
85.3312250659
  0
SPLINE
  5
88
330
1F
100
AcDbEntity
  8
0
  6
Continuous
 62
     7
370
    25
100
AcDbSpline
210
0.0
220
0.0
230
1.0
 70
     8
 71
     3
 72
    14
 73
    10
 74
     0
 42
0.00000001
 43
0.00000001
 40
0.0
 40
0.0
 40
0.0
 40
0.0
 40
0.1430678032810257
 40
0.2861406961651397
 40
0.4290584645431176
 40
0.5718593215740766
 40
0.7148471757699488
 40
0.8579655554237051
 40
1.0
 40
1.0
 40
1.0
 40
1.0
 10
147.4711173865309
 20
189.2499434279599
 30
0.0
 10
146.8609460995618
 20
189.2708892203249
 30
0.0
 10
145.6405818189252
 20
189.3127815501965
 30
0.0
 10
143.3073773362981
 20
189.3528775068468
 30
0.0
 10
140.9268364263549
 20
189.3444262792638
 30
0.0
 10
138.7109134024989
 20
189.2927491464872
 30
0.0
 10
136.9399634527154
 20
189.2278624530665
 30
0.0
 10
135.7399689513666
 20
189.1836046598764
 30
0.0
 10
135.5887257260686
 20
189.2042386456318
 30
0.0
 10
135.5133915695189
 20
189.2145164211161
 30
0.0
  0
SPLINE
  5
89
330
1F
100
AcDbEntity
  8
0
  6
Continuous
 62
     7
370
    25
100
AcDbSpline
210
0.0
220
0.0
230
1.0
 70
     8
 71
     3
 72
    10
 73
     6
 74
     0
 42
0.00000001
 43
0.00000001
 40
0.0
 40
0.0
 40
0.0
 40
0.0
 40
0.2932510354809839
 40
0.722197350813992
 40
1.0
 40
1.0
 40
1.0
 40
1.0
 10
149.4249767925816
 20
189.2212790460954
 30
0.0
 10
149.4227205530804
 20
189.2101090581094
 30
0.0
 10
149.4171640503114
 20
189.1826004229945
 30
0.0
 10
148.6452480315077
 20
189.2073292660664
 30
0.0
 10
147.8024119566932
 20
189.2379193482651
 30
0.0
 10
147.4711173865309
 20
189.2499434279599
 30
0.0
  0
CIRCLE
  5
8A
330
1F
100
AcDbEntity
  8
0
  6
Continuous
 62
     7
370
    25
100
AcDbCircle
 10
142.5110777177
 20
104.2277423832
 30
0.0
 40
80.0
  0
LINE
  5
8B
330
1F
100
AcDbEntity
  8
0
  6
Continuous
 62
     7
370
    25
100
AcDbLine
 10
149.5110777177
 20
203.9777423832
 30
0.0
 11
135.5110777177
 21
203.9777423832
 31
0.0
  0
INSERT
  5
97
330
1F
100
AcDbEntity
  8
FORMAT
 62
     7
100
AcDbBlockReference
  2
SW_CENTERMARKSYMBOL_0
 10
142.5110777177
 20
104.2277423832
 30
0.0
  0
ARC
  5
98
330
1F
100
AcDbEntity
  8
0
  6
Continuous
 62
     7
370
    25
100
AcDbCircle
 10
389.7969796577
 20
-3090.7722576169
 30
0.0
 40
3281.00000000001
100
AcDbArc
 50
91.3257737586
 51
91.4146387371
  0
ARC
  5
99
330
1F
100
AcDbEntity
  8
0
  6
Continuous
 62
     7
370
    25
100
AcDbCircle
 10
389.7969796577
 20
-3090.7722576169
 30
0.0
 40
3281.00000000001
100
AcDbArc
 50
90.0
 51
91.0843329768
  0
ARC
  5
9A
330
1F
100
AcDbEntity
  8
0
  6
Continuous
 62
     7
370
    25
100
AcDbCircle
 10
389.7969796577
 20
3299.2277423832
 30
0.0
 40
3281.00000000001
100
AcDbArc
 50
268.5853612629
 51
270.0
  0
LINE
  5
9B
330
1F
100
AcDbEntity
  8
0
  6
Continuous
 62
     7
370
    25
100
AcDbLine
 10
389.7969796577
 20
18.2277423832
 30
0.0
 11
414.7969796577
 21
18.2277423832
 31
0.0
  0
LINE
  5
9C
330
1F
100
AcDbEntity
  8
0
  6
Continuous
 62
     7
370
    25
100
AcDbLine
 10
414.7969796577
 20
190.2277423832
 30
0.0
 11
389.7969796577
 21
190.2277423832
 31
0.0
  0
ARC
  5
9D
330
1F
100
AcDbEntity
  8
0
  6
Continuous
 62
     7
370
    25
100
AcDbCircle
 10
414.7969796577
 20
-3090.7722576169
 30
0.0
 40
3281.00000000001
100
AcDbArc
 50
88.9156678326
 51
90.0
  0
ARC
  5
9E
330
1F
100
AcDbEntity
  8
0
  6
Continuous
 62
     7
370
    25
100
AcDbCircle
 10
414.7969796577
 20
-3090.7722576169
 30
0.0
 40
3281.00000000001
100
AcDbArc
 50
88.5853612629
 51
88.6742441089
  0
ARC
  5
9F
330
1F
100
AcDbEntity
  8
0
  6
Continuous
 62
     7
370
    25
100
AcDbCircle
 10
414.7969796577
 20
3299.2277423832
 30
0.0
 40
3281.00000000001
100
AcDbArc
 50
270.0
 51
271.4146387371
  0
LINE
  5
A0
330
1F
100
AcDbEntity
  8
0
  6
Continuous
 62
     7
370
    25
100
AcDbLine
 10
327.7969796577
 20
189.6329322216
 30
0.0
 11
327.7969796577
 21
203.9777423832
 31
0.0
  0
LINE
  5
A1
330
1F
100
AcDbEntity
  8
0
  6
Continuous
 62
     7
370
    25
100
AcDbLine
 10
313.7969796577
 20
203.9777423832
 30
0.0
 11
313.7969796577
 21
189.3423200055
 31
0.0
  0
LINE
  5
A2
330
1F
100
AcDbEntity
  8
0
  6
Continuous
 62
     7
370
    25
100
AcDbLine
 10
490.7969796577
 20
189.342264387
 30
0.0
 11
490.7969796577
 21
203.9777423832
 31
0.0
  0
LINE
  5
A3
330
1F
100
AcDbEntity
  8
0
  6
Continuous
 62
     7
370
    25
100
AcDbLine
 10
476.7969796577
 20
203.9777423832
 30
0.0
 11
476.7969796577
 21
189.6329378967
 31
0.0
  0
LINE
  5
A4
330
1F
100
AcDbEntity
  8
0
  6
Continuous
 62
     7
370
    25
100
AcDbLine
 10
308.7969796577
 20
104.2277423832
 30
0.0
 11
308.7969796577
 21
189.2277423832
 31
0.0
  0
LINE
  5
A5
330
1F
100
AcDbEntity
  8
0
  6
Continuous
 62
     7
370
    25
100
AcDbLine
 10
308.7969796577
 20
19.2277423832
 30
0.0
 11
308.7969796577
 21
104.2277423832
 31
0.0
  0
SPLINE
  5
A6
330
1F
100
AcDbEntity
  8
0
  6
Continuous
 62
     7
370
    25
100
AcDbSpline
210
0.0
220
0.0
230
1.0
 70
     8
 71
     3
 72
    17
 73
    13
 74
     0
 42
0.00000001
 43
0.00000001
 40
0.0
 40
0.0
 40
0.0
 40
0.0
 40
0.0696855544265051
 40
0.1765380827222184
 40
0.2837229392210325
 40
0.391344404559798
 40
0.4989542684253799
 40
0.6061924351216507
 40
0.7132448059024754
 40
0.8204822917110859
 40
0.9279115000854381
 40
1.0
 40
1.0
 40
1.0
 40
1.0
 10
327.7072447866207
 20
189.6329069155414
 30
0.0
 10
327.709952060792
 20
189.6331328726061
 30
0.0
 10
327.7168105409396
 20
189.6337053015306
 30
0.0
 10
326.8381115631838
 20
189.5473317773713
 30
0.0
 10
325.2827761290421
 20
189.4177113745197
 30
0.0
 10
323.1875392195619
 20
189.2876279303759
 30
0.0
 10
320.8276341593381
 20
189.2039645994446
 30
0.0
 10
318.467204547842
 20
189.1863645703468
 30
0.0
 10
316.3644036221157
 20
189.2268730500774
 30
0.0
 10
314.7884579254283
 20
189.2912506748509
 30
0.0
 10
313.8858933796357
 20
189.3420343594288
 30
0.0
 10
313.8849158727913
 20
189.3422247992437
 30
0.0
 10
313.8845233376886
 20
189.342301273708
 30
0.0
  0
LINE
  5
A7
330
1F
100
AcDbEntity
  8
0
  6
Continuous
 62
     7
370
    25
100
AcDbLine
 10
495.7969796577
 20
104.2277423832
 30
0.0
 11
495.7969796577
 21
189.2277423832
 31
0.0
  0
LINE
  5
A8
330
1F
100
AcDbEntity
  8
0
  6
Continuous
 62
     7
370
    25
100
AcDbLine
 10
495.7969796577
 20
19.2277423832
 30
0.0
 11
495.7969796577
 21
104.2277423832
 31
0.0
  0
SPLINE
  5
A9
330
1F
100
AcDbEntity
  8
0
  6
Continuous
 62
     7
370
    25
100
AcDbSpline
210
0.0
220
0.0
230
1.0
 70
     8
 71
     3
 72
    17
 73
    13
 74
     0
 42
0.00000001
 43
0.00000001
 40
0.0
 40
0.0
 40
0.0
 40
0.0
 40
0.0712431183322865
 40
0.1784352698977241
 40
0.2857677891672529
 40
0.393198286172739
 40
0.5004490735101269
 40
0.6075009132760286
 40
0.7147155527828052
 40
0.8223057302768897
 40
0.9299414633500623
 40
1.0
 40
1.0
 40
1.0
 40
1.0
 10
490.7085385661883
 20
189.3422473409106
 30
0.0
 10
490.7093039614471
 20
189.3422413161341
 30
0.0
 10
490.7112209677878
 20
189.3422262264997
 30
0.0
 10
489.8168460139107
 20
189.2918334612246
 30
0.0
 10
488.2458466125
 20
189.2273648641492
 30
0.0
 10
486.1423224320644
 20
189.1864257536264
 30
0.0
 10
483.783815093408
 20
189.2036497106591
 30
0.0
 10
481.4301771032069
 20
189.2865458751204
 30
0.0
 10
479.3339007901047
 20
189.4160123002642
 30
0.0
 10
477.7668132725163
 20
189.5462724147291
 30
0.0
 10
476.8783890207523
 20
189.6335784157161
 30
0.0
 10
476.8843161132689
 20
189.6331016666938
 30
0.0
 10
476.8866529552444
 20
189.6329137014944
 30
0.0
  0
LINE
  5
AA
330
1F
100
AcDbEntity
  8
0
  6
Continuous
 62
     7
370
    25
100
AcDbLine
 10
327.7969796577
 20
203.9777423832
 30
0.0
 11
313.7969796577
 21
203.9777423832
 31
0.0
  0
LINE
  5
AB
330
1F
100
AcDbEntity
  8
0
  6
Continuous
 62
     7
370
    25
100
AcDbLine
 10
490.7969796577
 20
203.9777423832
 30
0.0
 11
476.7969796577
 21
203.9777423832
 31
0.0
  0
LINE
  5
AC
330
1F
100
AcDbEntity
  8
0
  6
Continuous
 62
     1
370
    25
100
AcDbLine
 10
389.7969796577
 20
104.2277423832
 30
0.0
 11
389.7969796577
 21
190.2277423832
 31
0.0
  0
LINE
  5
AD
330
1F
100
AcDbEntity
  8
0
  6
Continuous
 62
     1
370
    25
100
AcDbLine
 10
389.7969796577
 20
18.2277423832
 30
0.0
 11
389.7969796577
 21
104.2277423832
 31
0.0
  0
LINE
  5
AE
330
1F
100
AcDbEntity
  8
0
  6
Continuous
 62
     1
370
    25
100
AcDbLine
 10
414.7969796577
 20
104.2277423832
 30
0.0
 11
414.7969796577
 21
190.2277423832
 31
0.0
  0
LINE
  5
AF
330
1F
100
AcDbEntity
  8
0
  6
Continuous
 62
     1
370
    25
100
AcDbLine
 10
414.7969796577
 20
18.2277423832
 30
0.0
 11
414.7969796577
 21
104.2277423832
 31
0.0
  0
ARC
  5
B0
330
1F
100
AcDbEntity
  8
0
  6
Continuous
 62
     7
370
    25
100
AcDbCircle
 10
3337.5110777177
 20
365.0454881733
 30
0.0
 40
3281.00000000001
100
AcDbArc
 50
180.0
 51
181.4146387371
  0
ARC
  5
B1
330
1F
100
AcDbEntity
  8
0
  6
Continuous
 62
     7
370
    25
100
AcDbCircle
 10
-3052.4889222823
 20
365.0454881733
 30
0.0
 40
3281.00000000001
100
AcDbArc
 50
358.5853612629
 51
0.0
  0
LINE
  5
B2
330
1F
100
AcDbEntity
  8
0
  6
Continuous
 62
     7
370
    25
100
AcDbLine
 10
228.5110777177
 20
365.0454881733
 30
0.0
 11
228.5110777177
 21
390.0454881733
 31
0.0
  0
LINE
  5
B3
330
1F
100
AcDbEntity
  8
0
  6
Continuous
 62
     7
370
    25
100
AcDbLine
 10
56.5110777177
 20
390.0454881733
 30
0.0
 11
56.5110777177
 21
365.0454881733
 31
0.0
  0
ARC
  5
B4
330
1F
100
AcDbEntity
  8
0
  6
Continuous
 62
     7
370
    25
100
AcDbCircle
 10
3337.5110777177
 20
390.0454881733
 30
0.0
 40
3281.00000000001
100
AcDbArc
 50
178.5853612629
 51
180.0
  0
ARC
  5
B5
330
1F
100
AcDbEntity
  8
0
  6
Continuous
 62
     7
370
    25
100
AcDbCircle
 10
-3052.4889222823
 20
390.0454881733
 30
0.0
 40
3281.00000000001
100
AcDbArc
 50
0.0
 51
1.4146387371
  0
LINE
  5
B6
330
1F
100
AcDbEntity
  8
0
  6
Continuous
 62
     7
370
    25
100
AcDbLine
 10
227.5110777177
 20
284.0454881733
 30
0.0
 11
57.5110777177
 21
284.0454881733
 31
0.0
  0
LINE
  5
B7
330
1F
100
AcDbEntity
  8
0
  6
Continuous
 62
     7
370
    25
100
AcDbLine
 10
227.5110777177
 20
471.0454881733
 30
0.0
 11
57.5110777177
 21
471.0454881733
 31
0.0
  0
LINE
  5
B8
330
1F
100
AcDbEntity
  8
0
  6
Continuous
 62
     1
370
    25
100
AcDbLine
 10
228.5110777177
 20
365.0454881733
 30
0.0
 11
56.5110777177
 21
365.0454881733
 31
0.0
  0
LINE
  5
B9
330
1F
100
AcDbEntity
  8
0
  6
Continuous
 62
     1
370
    25
100
AcDbLine
 10
228.5110777177
 20
390.0454881733
 30
0.0
 11
56.5110777177
 21
390.0454881733
 31
0.0
  0
ARC
  5
BA
330
1F
100
AcDbEntity
  8
0
  6
Continuous
 62
     7
370
    25
100
AcDbCircle
 10
-128.8123236106
 20
3299.2277423832
 30
0.0
 40
3281.00000000001
100
AcDbArc
 50
270.0
 51
271.4146387371
  0
ARC
  5
BB
330
1F
100
AcDbEntity
  8
0
  6
Continuous
 62
     7
370
    25
100
AcDbCircle
 10
-128.8123236106
 20
-3090.7722576169
 30
0.0
 40
3281.00000000001
100
AcDbArc
 50
88.9156670932
 51
90.0
  0
ARC
  5
BC
330
1F
100
AcDbEntity
  8
0
  6
Continuous
 62
     7
370
    25
100
AcDbCircle
 10
-128.8123236106
 20
-3090.7722576169
 30
0.0
 40
3281.00000000001
100
AcDbArc
 50
88.5853612629
 51
88.674228392
  0
LINE
  5
BD
330
1F
100
AcDbEntity
  8
0
  6
Continuous
 62
     7
370
    25
100
AcDbLine
 10
-128.8123236106
 20
190.2277423832
 30
0.0
 11
-153.8123236106
 21
190.2277423832
 31
0.0
  0
LINE
  5
BE
330
1F
100
AcDbEntity
  8
0
  6
Continuous
 62
     7
370
    25
100
AcDbLine
 10
-153.8123236106
 20
18.2277423832
 30
0.0
 11
-128.8123236106
 21
18.2277423832
 31
0.0
  0
ARC
  5
BF
330
1F
100
AcDbEntity
  8
0
  6
Continuous
 62
     7
370
    25
100
AcDbCircle
 10
-153.8123236106
 20
3299.2277423832
 30
0.0
 40
3281.00000000001
100
AcDbArc
 50
268.5853612629
 51
270.0
  0
ARC
  5
C0
330
1F
100
AcDbEntity
  8
0
  6
Continuous
 62
     7
370
    25
100
AcDbCircle
 10
-153.8123236106
 20
-3090.7722576169
 30
0.0
 40
3281.00000000001
100
AcDbArc
 50
91.3257580405
 51
91.4146387371
  0
ARC
  5
C1
330
1F
100
AcDbEntity
  8
0
  6
Continuous
 62
     7
370
    25
100
AcDbCircle
 10
-153.8123236106
 20
-3090.7722576169
 30
0.0
 40
3281.00000000001
100
AcDbArc
 50
90.0
 51
91.0843322485
  0
LINE
  5
C2
330
1F
100
AcDbEntity
  8
0
  6
Continuous
 62
     7
370
    25
100
AcDbLine
 10
-52.8123236106
 20
189.3423200055
 30
0.0
 11
-52.8123236106
 21
203.9777423832
 31
0.0
  0
LINE
  5
C3
330
1F
100
AcDbEntity
  8
0
  6
Continuous
 62
     7
370
    25
100
AcDbLine
 10
-66.8123236106
 20
203.9777423832
 30
0.0
 11
-66.8123236106
 21
189.6329322216
 31
0.0
  0
LINE
  5
C4
330
1F
100
AcDbEntity
  8
0
  6
Continuous
 62
     7
370
    25
100
AcDbLine
 10
-215.8123236106
 20
189.6329378967
 30
0.0
 11
-215.8123236106
 21
203.9777423832
 31
0.0
  0
LINE
  5
C5
330
1F
100
AcDbEntity
  8
0
  6
Continuous
 62
     7
370
    25
100
AcDbLine
 10
-229.8123236106
 20
203.9777423832
 30
0.0
 11
-229.8123236106
 21
189.342264387
 31
0.0
  0
LINE
  5
C6
330
1F
100
AcDbEntity
  8
0
  6
Continuous
 62
     7
370
    25
100
AcDbLine
 10
-47.8123236106
 20
189.2277423832
 30
0.0
 11
-47.8123236106
 21
19.2277423832
 31
0.0
  0
SPLINE
  5
C7
330
1F
100
AcDbEntity
  8
0
  6
Continuous
 62
     7
370
    25
100
AcDbSpline
210
0.0
220
0.0
230
1.0
 70
     8
 71
     3
 72
    10
 73
     6
 74
     0
 42
0.00000001
 43
0.00000001
 40
0.0
 40
0.0
 40
0.0
 40
0.0
 40
0.4258944218188264
 40
0.8518437116223255
 40
1.0
 40
1.0
 40
1.0
 40
1.0
 10
-64.73219992170449
 20
189.4565825334565
 30
0.0
 10
-65.2271726846608
 20
189.4976683486541
 30
0.0
 10
-66.21718197792178
 20
189.5798452721354
 30
0.0
 10
-66.83938967176597
 20
189.6447417851191
 30
0.0
 10
-66.74656323670828
 20
189.6353361086749
 30
0.0
 10
-66.72260802602203
 20
189.6329088371684
 30
0.0
  0
SPLINE
  5
C8
330
1F
100
AcDbEntity
  8
0
  6
Continuous
 62
     7
370
    25
100
AcDbSpline
210
0.0
220
0.0
230
1.0
 70
     8
 71
     3
 72
    15
 73
    11
 74
     0
 42
0.00000001
 43
0.00000001
 40
0.0
 40
0.0
 40
0.0
 40
0.0
 40
0.0470885642305722
 40
0.1902747502705417
 40
0.3335612013209575
 40
0.4770552430710873
 40
0.6204309827930918
 40
0.7634789118137448
 40
0.9065572245112566
 40
1.0
 40
1.0
 40
1.0
 40
1.0
 10
-52.89986288880298
 20
189.3423015281331
 30
0.0
 10
-52.87539567896673
 20
189.343725587583
 30
0.0
 10
-52.77652895160992
 20
189.3494799052316
 30
0.0
 10
-53.41455539000495
 20
189.311825365882
 30
0.0
 10
-54.75224658341286
 20
189.2491162068725
 30
0.0
 10
-56.7148434629461
 20
189.1948878361938
 30
0.0
 10
-59.01376946038015
 20
189.1902953352763
 30
0.0
 10
-61.39408612188034
 20
189.2516893265862
 30
0.0
 10
-63.36763054595377
 20
189.3558002206349
 30
0.0
 10
-64.34576624258294
 20
189.4280418959293
 30
0.0
 10
-64.73219992170449
 20
189.4565825334565
 30
0.0
  0
LINE
  5
C9
330
1F
100
AcDbEntity
  8
0
  6
Continuous
 62
     7
370
    25
100
AcDbLine
 10
-234.8123236106
 20
189.2277423832
 30
0.0
 11
-234.8123236106
 21
19.2277423832
 31
0.0
  0
SPLINE
  5
CA
330
1F
100
AcDbEntity
  8
0
  6
Continuous
 62
     7
370
    25
100
AcDbSpline
210
0.0
220
0.0
230
1.0
 70
     8
 71
     3
 72
    10
 73
     6
 74
     0
 42
0.00000001
 43
0.00000001
 40
0.0
 40
0.0
 40
0.0
 40
0.0
 40
0.4281504327653203
 40
0.8563160968804961
 40
0.9999999999999999
 40
0.9999999999999999
 40
0.9999999999999999
 40
0.9999999999999999
 10
-227.7517574327883
 20
189.2499434279599
 30
0.0
 10
-228.2445150233784
 20
189.2702710392263
 30
0.0
 10
-229.2300477342929
 20
189.310926984909
 30
0.0
 10
-229.8437880186683
 20
189.3493732976713
 30
0.0
 10
-229.7479571289221
 20
189.3436780947339
 30
0.0
 10
-229.7238784951919
 20
189.3422471082754
 30
0.0
  0
SPLINE
  5
CB
330
1F
100
AcDbEntity
  8
0
  6
Continuous
 62
     7
370
    25
100
AcDbSpline
210
0.0
220
0.0
230
1.0
 70
     8
 71
     3
 72
    15
 73
    11
 74
     0
 42
0.00000001
 43
0.00000001
 40
0.0
 40
0.0
 40
0.0
 40
0.0
 40
0.0495615478554526
 40
0.1920344951759466
 40
0.3347509549434582
 40
0.4781036082495963
 40
0.6216612672739146
 40
0.7648009194594663
 40
0.907550019963962
 40
1.0
 40
1.0
 40
1.0
 40
1.0
 10
-215.9020168740122
 20
189.6329117123125
 30
0.0
 10
-215.8775307802384
 20
189.6353608886374
 30
0.0
 10
-215.7826553201256
 20
189.6448506313812
 30
0.0
 10
-216.4298535101753
 20
189.5796787469043
 30
0.0
 10
-217.7742251923219
 20
189.4606214191388
 30
0.0
 10
-219.7400258100887
 20
189.3241359612446
 30
0.0
 10
-222.0445475975163
 20
189.2230245365355
 30
0.0
 10
-224.4289752187065
 20
189.1847938847737
 30
0.0
 10
-226.3978391890421
 20
189.2064914985665
 30
0.0
 10
-227.3697337078171
 20
189.2376829624549
 30
0.0
 10
-227.7517574327883
 20
189.2499434279599
 30
0.0
  0
LINE
  5
CC
330
1F
100
AcDbEntity
  8
0
  6
Continuous
 62
     7
370
    25
100
AcDbLine
 10
-52.8123236106
 20
203.9777423832
 30
0.0
 11
-66.8123236106
 21
203.9777423832
 31
0.0
  0
LINE
  5
CD
330
1F
100
AcDbEntity
  8
0
  6
Continuous
 62
     7
370
    25
100
AcDbLine
 10
-215.8123236106
 20
203.9777423832
 30
0.0
 11
-229.8123236106
 21
203.9777423832
 31
0.0
  0
LINE
  5
CE
330
1F
100
AcDbEntity
  8
0
  6
Continuous
 62
     1
370
    25
100
AcDbLine
 10
-128.8123236106
 20
190.2277423832
 30
0.0
 11
-128.8123236106
 21
18.2277423832
 31
0.0
  0
LINE
  5
CF
330
1F
100
AcDbEntity
  8
0
  6
Continuous
 62
     1
370
    25
100
AcDbLine
 10
-153.8123236106
 20
190.2277423832
 30
0.0
 11
-153.8123236106
 21
18.2277423832
 31
0.0
  0
ARC
  5
D0
330
1F
100
AcDbEntity
  8
0
  6
Continuous
 62
     7
370
    25
100
AcDbCircle
 10
-3052.4889222823
 20
-147.6542595795
 30
0.0
 40
3281.00000000001
100
AcDbArc
 50
0.0
 51
1.4146387371
  0
ARC
  5
D1
330
1F
100
AcDbEntity
  8
0
  6
Continuous
 62
     7
370
    25
100
AcDbCircle
 10
3337.5110777177
 20
-147.6542595795
 30
0.0
 40
3281.00000000001
100
AcDbArc
 50
178.5853612629
 51
180.0
  0
LINE
  5
D2
330
1F
100
AcDbEntity
  8
0
  6
Continuous
 62
     7
370
    25
100
AcDbLine
 10
56.5110777177
 20
-147.6542595795
 30
0.0
 11
56.5110777177
 21
-172.6542595795
 31
0.0
  0
LINE
  5
D3
330
1F
100
AcDbEntity
  8
0
  6
Continuous
 62
     7
370
    25
100
AcDbLine
 10
228.5110777177
 20
-172.6542595795
 30
0.0
 11
228.5110777177
 21
-147.6542595795
 31
0.0
  0
ARC
  5
D4
330
1F
100
AcDbEntity
  8
0
  6
Continuous
 62
     7
370
    25
100
AcDbCircle
 10
-3052.4889222823
 20
-172.6542595795
 30
0.0
 40
3281.00000000001
100
AcDbArc
 50
358.5853612629
 51
0.0
  0
ARC
  5
D5
330
1F
100
AcDbEntity
  8
0
  6
Continuous
 62
     7
370
    25
100
AcDbCircle
 10
3337.5110777177
 20
-172.6542595795
 30
0.0
 40
3281.00000000001
100
AcDbArc
 50
180.0
 51
181.4146387371
  0
CIRCLE
  5
D6
330
1F
100
AcDbEntity
  8
0
  6
Continuous
 62
     7
370
    25
100
AcDbCircle
 10
142.5110777177
 20
-78.6542595795
 30
0.0
 40
7.000000000000028
  0
CIRCLE
  5
D7
330
1F
100
AcDbEntity
  8
0
  6
Continuous
 62
     7
370
    25
100
AcDbCircle
 10
142.5110777177
 20
-78.6542595795
 30
0.0
 40
5.000000000000014
  0
CIRCLE
  5
D8
330
1F
100
AcDbEntity
  8
0
  6
Continuous
 62
     7
370
    25
100
AcDbCircle
 10
142.5110777177
 20
-241.6542595795
 30
0.0
 40
7.0
  0
CIRCLE
  5
D9
330
1F
100
AcDbEntity
  8
0
  6
Continuous
 62
     7
370
    25
100
AcDbCircle
 10
142.5110777177
 20
-241.6542595795
 30
0.0
 40
5.0
  0
LINE
  5
DA
330
1F
100
AcDbEntity
  8
0
  6
Continuous
 62
     7
370
    25
100
AcDbLine
 10
57.5110777177
 20
-66.6542595795
 30
0.0
 11
227.5110777177
 21
-66.6542595795
 31
0.0
  0
LINE
  5
DB
330
1F
100
AcDbEntity
  8
0
  6
Continuous
 62
     7
370
    25
100
AcDbLine
 10
57.5110777177
 20
-253.6542595795
 30
0.0
 11
227.5110777177
 21
-253.6542595795
 31
0.0
  0
LINE
  5
DC
330
1F
100
AcDbEntity
  8
0
  6
Continuous
 62
     1
370
    25
100
AcDbLine
 10
56.5110777177
 20
-147.6542595795
 30
0.0
 11
228.5110777177
 21
-147.6542595795
 31
0.0
  0
LINE
  5
DD
330
1F
100
AcDbEntity
  8
0
  6
Continuous
 62
     1
370
    25
100
AcDbLine
 10
56.5110777177
 20
-172.6542595795
 30
0.0
 11
228.5110777177
 21
-172.6542595795
 31
0.0
  0
INSERT
  5
E9
330
1F
100
AcDbEntity
  8
FORMAT
 62
     7
100
AcDbBlockReference
  2
SW_CENTERMARKSYMBOL_1
 10
142.5110777177
 20
-78.6542595795
 30
0.0
  0
INSERT
  5
F5
330
1F
100
AcDbEntity
  8
FORMAT
 62
     7
100
AcDbBlockReference
  2
SW_CENTERMARKSYMBOL_2
 10
142.5110777177
 20
-241.6542595795
 30
0.0
  0
SPLINE
  5
F6
330
1F
100
AcDbEntity
  8
0
  6
Continuous
 62
     7
370
    25
100
AcDbSpline
210
0.0
220
0.0
230
1.0
 70
     8
 71
     3
 72
    11
 73
     7
 74
     0
 42
0.00000001
 43
0.00000001
 40
0.0
 40
0.0
 40
0.0
 40
0.0
 40
0.1600969495876346
 40
0.4693745537437732
 40
0.7785981766644763
 40
0.9999999999999999
 40
0.9999999999999999
 40
0.9999999999999999
 40
0.9999999999999999
 10
378.1413775941486
 20
-97.71458182857769
 30
0.0
 10
375.042118077473
 20
-99.49857815958016
 30
0.0
 10
365.9556641736187
 20
-104.7289244210275
 30
0.0
 10
350.992434760107
 20
-113.5919962500622
 30
0.0
 10
334.9125949550523
 20
-123.253762950411
 30
0.0
 10
324.8326562266998
 20
-129.4825425764459
 30
0.0
 10
320.6268330244519
 20
-132.0814815758647
 30
0.0
  0
SPLINE
  5
F7
330
1F
100
AcDbEntity
  8
0
  6
Continuous
 62
     7
370
    25
100
AcDbSpline
210
0.0
220
0.0
230
1.0
 70
     8
 71
     3
 72
    11
 73
     7
 74
     0
 42
0.00000001
 43
0.00000001
 40
0.0
 40
0.0
 40
0.0
 40
0.0
 40
0.2320864378097759
 40
0.5414393437893297
 40
0.8507805820770882
 40
0.9999999999999999
 40
0.9999999999999999
 40
0.9999999999999999
 40
0.9999999999999999
 10
405.588345751699
 20
-279.2543058292997
 30
0.0
 10
410.1516672254842
 20
-276.797554845475
 30
0.0
 10
420.7975360990939
 20
-271.0661486802165
 30
0.0
 10
437.4154336673562
 20
-261.850558008091
 30
0.0
 10
452.3632783529759
 20
-253.4381777747011
 30
0.0
 10
461.2261449889175
 20
-248.3038184916014
 30
0.0
 10
464.1101948580716
 20
-246.6330556530222
 30
0.0
  0
LINE
  5
F8
330
1F
100
AcDbEntity
  8
0
  6
Continuous
 62
     7
370
    25
100
AcDbLine
 10
379.3354008699
 20
-130.74527788
 30
0.0
 11
379.3354008699
 21
-118.8899626931
 31
0.0
  0
LINE
  5
F9
330
1F
100
AcDbEntity
  8
0
  6
Continuous
 62
     7
370
    25
100
AcDbLine
 10
365.3354008699
 20
-118.8899626931
 30
0.0
 11
365.3354008699
 21
-130.9148592218
 31
0.0
  0
LINE
  5
FA
330
1F
100
AcDbEntity
  8
0
  6
Continuous
 62
     7
370
    25
100
AcDbLine
 10
395.8069327981
 20
-87.4885252583
 30
0.0
 11
378.1292632684
 21
-97.6936266561
 31
0.0
  0
LINE
  5
FB
330
1F
100
AcDbEntity
  8
0
  6
Continuous
 62
     7
370
    25
100
AcDbLine
 10
464.1222742751
 20
-246.6540309855
 30
0.0
 11
481.7999438048
 21
-236.4489295878
 31
0.0
  0
SPLINE
  5
FC
330
1F
100
AcDbEntity
  8
0
  6
Continuous
 62
     7
370
    25
100
AcDbSpline
210
0.0
220
0.0
230
1.0
 70
     8
 71
     3
 72
    11
 73
     7
 74
     0
 42
0.00000001
 43
0.00000001
 40
0.0
 40
0.0
 40
0.0
 40
0.0
 40
0.2320717386175735
 40
0.5414308084990834
 40
0.8507782104565855
 40
1.0
 40
1.0
 40
1.0
 40
1.0
 10
454.3397225896277
 20
-54.88886609165522
 30
0.0
 10
449.7767812419531
 20
-57.3454128931189
 30
0.0
 10
439.1312927489469
 20
-63.07661535988754
 30
0.0
 10
422.5137736592028
 20
-72.29199871561617
 30
0.0
 10
407.5659403722269
 20
-80.70437177288903
 30
0.0
 10
398.7030853652022
 20
-85.83872432607991
 30
0.0
 10
395.8190471238121
 20
-87.50948043079399
 30
0.0
  0
SPLINE
  5
FD
330
1F
100
AcDbEntity
  8
0
  6
Continuous
 62
     7
370
    25
100
AcDbSpline
210
0.0
220
0.0
230
1.0
 70
     8
 71
     3
 72
    11
 73
     7
 74
     0
 42
0.00000001
 43
0.00000001
 40
0.0
 40
0.0
 40
0.0
 40
0.0
 40
0.1600989149221123
 40
0.4693814779054755
 40
0.7786100587881488
 40
1.0
 40
1.0
 40
1.0
 40
1.0
 10
481.7878643877351
 20
-236.4279542552385
 30
0.0
 10
484.8871122593475
 20
-234.6439646282697
 30
0.0
 10
493.9735545196248
 20
-229.4136250717399
 30
0.0
 10
508.9367720718326
 20
-220.5505596104627
 30
0.0
 10
525.0163174249653
 20
-210.888971991757
 30
0.0
 10
535.0959634233068
 20
-204.6603741712675
 30
0.0
 10
539.3014936528218
 20
-202.0616165932861
 30
0.0
  0
LINE
  5
FE
330
1F
100
AcDbEntity
  8
0
  6
Continuous
 62
     7
370
    25
100
AcDbLine
 10
494.5938062033
 20
-64.3782073656
 30
0.0
 11
494.5938062033
 21
-52.3527015795
 31
0.0
  0
LINE
  5
FF
330
1F
100
AcDbEntity
  8
0
  6
Continuous
 62
     7
370
    25
100
AcDbLine
 10
480.5938062033
 20
-52.3527015795
 30
0.0
 11
480.5938062033
 21
-64.2095591159
 31
0.0
  0
LWPOLYLINE
  5
100
330
1F
100
AcDbEntity
  8
0
  6
Continuous
 62
     7
370
    25
100
AcDbPolyline
 90
      125
 70
   128
 43
0.0
 10
303.7460430948
 20
-170.5410125972
 10
303.8231862459
 20
-167.0701917475
 10
304.0544176737
 20
-163.6973480316
 10
304.4391438104
 20
-160.4311394907
 10
304.9763770697
 20
-157.2799504355
 10
305.6647383814
 20
-154.251869923
 10
306.5024607319
 20
-151.3546709925
 10
307.4873937
 20
-148.5957907121
 10
308.6170089769
 20
-145.9823110878
 10
309.8884068563
 20
-143.5209408845
 10
311.2983236781
 20
-141.217998404
 10
312.8431402061
 20
-139.0793952668
 10
314.5188909183
 20
-137.1106212364
 10
316.3212741868
 20
-135.3167301275
 10
318.2456633196
 20
-133.7023268328
 10
320.2871184373
 20
-132.2715555025
 10
322.4403991539
 20
-131.0280889061
 10
324.6999780287
 20
-129.9751190044
 10
327.0600547552
 20
-129.1153487561
 10
329.5145710502
 20
-128.4509851791
 10
332.0572262057
 20
-127.9837336852
 10
334.6814932622
 20
-127.7147937022
 10
337.380635764
 20
-127.6448555953
 10
340.1477250508
 20
-127.7740988945
 10
342.9756580443
 20
-128.1021918342
 10
345.8571754809
 20
-128.6282922044
 10
348.7848805467
 20
-129.3510495132
 10
351.7512578649
 20
-130.2686084527
 10
354.7486927873
 20
-131.3786136625
 10
357.7694909416
 20
-132.678215775
 10
360.8058979821
 20
-134.1640787302
 10
363.8501194957
 20
-135.8323883393
 10
366.8943410092
 20
-137.6788620755
 10
369.9307480497
 20
-139.698760067
 10
372.951546204
 20
-141.8868972648
 10
375.9489811265
 20
-144.2376567521
 10
378.9153584446
 20
-146.7450041629
 10
381.8430635105
 20
-149.4025031724
 10
384.7245809471
 20
-152.2033320188
 10
387.5525139405
 20
-155.1403010146
 10
390.3196032274
 20
-158.2058710024
 10
393.0187457291
 20
-161.3921727082
 10
395.6430127857
 20
-164.6910269411
 10
398.1856679411
 20
-168.0939655897
 10
400.6401842361
 20
-171.5922533591
 10
403.0002609626
 20
-175.176910195
 10
405.2598398375
 20
-178.8387343345
 10
407.4131205541
 20
-182.5683259277
 10
409.4545756718
 20
-186.3561111665
 10
411.3789648045
 20
-190.1923668603
 10
413.181348073
 20
-194.067245396
 10
414.8570987853
 20
-197.9708000158
 10
416.4019153133
 20
-201.8930103511
 10
417.8118321351
 20
-205.8238081441
 10
419.0832300145
 20
-209.7531030934
 10
420.2128452913
 20
-213.670808755
 10
421.1977782594
 20
-217.5668684349
 10
422.0355006099
 20
-221.4312810036
 10
422.7238619216
 20
-225.2541265695
 10
423.2610951809
 20
-229.0255919429
 10
423.6458213177
 20
-232.7359958263
 10
423.8770527455
 20
-236.3758136661
 10
423.9541958965
 20
-239.9357021021
 10
423.8770527455
 20
-243.4065229517
 10
423.6458213177
 20
-246.7793666677
 10
423.2610951809
 20
-250.0455752085
 10
422.7238619216
 20
-253.1967642637
 10
422.0355006099
 20
-256.2248447762
 10
421.1977782594
 20
-259.1220437067
 10
420.2128452913
 20
-261.8809239871
 10
419.0832300145
 20
-264.4944036114
 10
417.8118321351
 20
-266.9557738148
 10
416.4019153133
 20
-269.2587162952
 10
414.8570987853
 20
-271.3973194324
 10
413.181348073
 20
-273.3660934628
 10
411.3789648045
 20
-275.1599845717
 10
409.4545756718
 20
-276.7743878664
 10
407.4131205541
 20
-278.2051591967
 10
405.2598398375
 20
-279.4486257931
 10
403.0002609626
 20
-280.5015956948
 10
400.6401842361
 20
-281.3613659431
 10
398.1856679411
 20
-282.0257295201
 10
395.6430127857
 20
-282.492981014
 10
393.0187457291
 20
-282.761920997
 10
390.3196032274
 20
-282.8318591039
 10
387.5525139405
 20
-282.7026158047
 10
384.7245809471
 20
-282.374522865
 10
381.8430635105
 20
-281.8484224948
 10
378.9153584446
 20
-281.1256651861
 10
375.9489811265
 20
-280.2081062465
 10
372.951546204
 20
-279.0981010368
 10
369.9307480497
 20
-277.7984989243
 10
366.8943410092
 20
-276.312635969
 10
363.8501194957
 20
-274.6443263599
 10
360.8058979821
 20
-272.7978526238
 10
357.7694909416
 20
-270.7779546322
 10
354.7486927873
 20
-268.5898174344
 10
351.7512578649
 20
-266.2390579472
 10
348.7848805467
 20
-263.7317105364
 10
345.8571754809
 20
-261.0742115268
 10
342.9756580443
 20
-258.2733826805
 10
340.1477250508
 20
-255.3364136847
 10
337.380635764
 20
-252.2708436968
 10
334.6814932622
 20
-249.084541991
 10
332.0572262057
 20
-245.7856877581
 10
329.5145710502
 20
-242.3827491096
 10
327.0600547552
 20
-238.8844613401
 10
324.6999780287
 20
-235.2998045043
 10
322.4403991539
 20
-231.6379803647
 10
320.2871184373
 20
-227.9083887715
 10
318.2456633196
 20
-224.1206035328
 10
316.3212741868
 20
-220.2843478389
 10
314.5188909183
 20
-216.4094693033
 10
312.8431402061
 20
-212.5059146834
 10
311.2983236781
 20
-208.5837043482
 10
309.8884068563
 20
-204.6529065551
 10
308.6170089769
 20
-200.7236116059
 10
307.4873937
 20
-196.8059059442
 10
306.5024607319
 20
-192.9098462644
 10
305.6647383814
 20
-189.0454336956
 10
304.9763770697
 20
-185.2225881297
 10
304.4391438104
 20
-181.4511227563
 10
304.0544176737
 20
-177.7407188729
 10
303.8231862459
 20
-174.1009010331
 10
303.7460430948
 20
-170.5410125972
  0
SPLINE
  5
101
330
1F
100
AcDbEntity
  8
0
  6
Continuous
 62
     7
370
    25
100
AcDbSpline
210
0.0
220
0.0
230
1.0
 70
     8
 71
     3
 72
    12
 73
     8
 74
     0
 42
0.00000001
 43
0.00000001
 40
0.0
 40
0.0
 40
0.0
 40
0.0
 40
0.2144711002242969
 40
0.428949830206995
 40
0.6431960150415903
 40
0.8572669395824728
 40
1.0
 40
1.0
 40
1.0
 40
1.0
 10
372.3499714038214
 20
-134.9568168396578
 30
0.0
 10
371.5631943066005
 20
-134.895987974166
 30
0.0
 10
369.9896121227504
 20
-134.7743280792099
 30
0.0
 10
367.8858460312261
 20
-134.0478264147792
 30
0.0
 10
366.314705651594
 20
-133.0311105323871
 30
0.0
 10
365.4204779824283
 20
-131.9346079771599
 30
0.0
 10
365.4227354399534
 20
-131.2042043262051
 30
0.0
 10
365.4236384955102
 20
-130.9120193932003
 30
0.0
  0
SPLINE
  5
102
330
1F
100
AcDbEntity
  8
0
  6
Continuous
 62
     7
370
    25
100
AcDbSpline
210
0.0
220
0.0
230
1.0
 70
     8
 71
     3
 72
    13
 73
     9
 74
     0
 42
0.00000001
 43
0.00000001
 40
0.0
 40
0.0
 40
0.0
 40
0.0
 40
0.0015394039409846
 40
0.2166948810217864
 40
0.4321580475808229
 40
0.6469938350244845
 40
0.8612434503162932
 40
1.0
 40
1.0
 40
1.0
 40
1.0
 10
379.3326088282151
 20
-130.7455471300521
 30
0.0
 10
379.3335386895532
 20
-130.7489657020949
 30
0.0
 10
379.4644310347517
 20
-131.2301825174756
 30
0.0
 10
379.0014589440012
 20
-132.2331398061501
 30
0.0
 10
377.9102286966808
 20
-133.5191099633568
 30
0.0
 10
376.0966925397281
 20
-134.4629360917125
 30
0.0
 10
374.1456236066666
 20
-134.9231448697344
 30
0.0
 10
372.85663548524
 20
-134.9473159030712
 30
0.0
 10
372.3499714038214
 20
-134.9568168396578
 30
0.0
  0
LWPOLYLINE
  5
103
330
1F
100
AcDbEntity
  8
0
  6
Continuous
 62
     7
370
    25
100
AcDbPolyline
 90
      122
 70
   128
 43
0.0
 10
307.2815770007
 20
-172.5820328767
 10
307.3578263954
 20
-169.2355238515
 10
307.5863690246
 20
-165.9860721002
 10
307.9665887778
 20
-162.8424375703
 10
308.4974606497
 20
-159.8130949445
 10
309.1775535036
 20
-156.9062107952
 10
310.0050339295
 20
-154.1296215679
 10
310.9776711863
 20
-151.4908124564
 10
312.0928432161
 20
-148.9968972234
 10
313.3475437121
 20
-146.6545990237
 10
314.7383902238
 20
-144.4702322789
 10
316.2616332747
 20
-142.4496856556
 10
317.9131664709
 20
-140.5984061903
 10
319.688537571
 20
-138.9213846052
 10
321.5829604882
 20
-137.4231418539
 10
323.5913281934
 20
-136.107716934
 10
325.7082264823
 20
-134.9786559985
 10
327.9279485714
 20
-134.0390027961
 10
330.2445104823
 20
-133.2912904658
 10
332.6516671737
 20
-132.7375347076
 10
335.1429293768
 20
-132.3792283493
 10
337.7115810891
 20
-132.2173373215
 10
340.3506976796
 20
-132.2522980538
 10
343.0531645568
 20
-132.4840162981
 10
345.8116963476
 20
-132.9118673832
 10
348.6188565381
 20
-133.534697898
 10
351.4670775206
 20
-134.3508288016
 10
354.3486809951
 20
-135.3580599495
 10
357.2558986679
 20
-136.5536760245
 10
360.1808931942
 20
-137.9344538571
 10
363.1157793059
 20
-139.4966711143
 10
366.0526450689
 20
-141.2361163346
 10
368.9835732124
 20
-143.1481002813
 10
371.9006624722
 20
-145.2274685836
 10
374.7960488915
 20
-147.4686156322
 10
377.6619270203
 20
-149.8654996909
 10
380.490570958
 20
-152.4116591841
 10
383.2743551805
 20
-155.1002301159
 10
386.0057750978
 20
-157.9239645745
 10
388.6774672846
 20
-160.8752502709
 10
391.2822293312
 20
-163.9461310606
 10
393.8130392596
 20
-167.1283283921
 10
396.2630744538
 20
-170.4132636239
 10
398.6257300518
 20
-173.7920811514
 10
400.8946367521
 20
-177.2556722799
 10
403.0636779832
 20
-180.79469978
 10
405.1270063935
 20
-184.3996230594
 10
407.0790596144
 20
-188.0607238822
 10
408.9145752555
 20
-191.7681325678
 10
410.6286050912
 20
-195.511854598
 10
412.2165284
 20
-199.28179756
 10
413.6740644215
 20
-203.067798354
 10
414.9972838962
 20
-206.8596505914
 10
416.1826196584
 20
-210.6471321088
 10
417.2268762525
 20
-214.4200325257
 10
418.1272385472
 20
-218.1681807696
 10
418.881279325
 20
-221.8814724956
 10
419.4869658252
 20
-225.5498973256
 10
419.9426652243
 20
-229.1635658348
 10
420.247149037
 20
-232.7127362119
 10
420.399596429
 20
-236.187840521
 10
420.399596429
 20
-239.5795104952
 10
420.247149037
 20
-242.8786027921
 10
419.9426652243
 20
-246.0762236419
 10
419.4869658252
 20
-249.1637528242
 10
418.881279325
 20
-252.1328669062
 10
418.1272385472
 20
-254.9755616813
 10
417.2268762525
 20
-257.6841737469
 10
416.1826196584
 20
-260.2514011639
 10
414.9972838962
 20
-262.6703231408
 10
413.6740644215
 20
-264.9344186919
 10
412.2165284
 20
-267.0375842157
 10
410.6286050912
 20
-268.9741499498
 10
408.9145752555
 20
-270.7388952554
 10
407.0790596144
 20
-272.3270626911
 10
405.1270063935
 20
-273.7343708384
 10
403.0636779832
 20
-274.9570258433
 10
400.8946367521
 20
-275.9917316439
 10
398.6257300518
 20
-276.8356988566
 10
396.2630744538
 20
-277.4866522947
 10
393.8130392596
 20
-277.942837103
 10
391.2822293312
 20
-278.2030234879
 10
388.6774672846
 20
-278.2665100328
 10
386.0057750978
 20
-278.1331255894
 10
383.2743551805
 20
-277.8032297383
 10
380.490570958
 20
-277.2777118206
 10
377.6619270203
 20
-276.5579885397
 10
374.7960488915
 20
-275.6460001422
 10
371.9006624722
 20
-274.5442051876
 10
368.9835732123
 20
-273.2555739204
 10
366.0526450689
 20
-271.7835802626
 10
363.1157793059
 20
-270.1321924488
 10
360.1808931942
 20
-268.3058623287
 10
357.2558986679
 20
-266.3095133654
 10
354.3486809951
 20
-264.1485273626
 10
351.4670775206
 20
-261.8287299567
 10
348.6188565381
 20
-259.3563749113
 10
345.8116963476
 20
-256.7381272585
 10
343.0531645568
 20
-253.9810453311
 10
340.3506976796
 20
-251.0925617344
 10
337.7115810891
 20
-248.0804633097
 10
335.1429293768
 20
-244.9528701416
 10
332.6516671737
 20
-241.7182136685
 10
330.2445104823
 20
-238.3852139524
 10
327.9279485714
 20
-234.9628561711
 10
325.7082264823
 20
-231.4603663962
 10
323.5913281934
 20
-227.8871867209
 10
321.5829604882
 20
-224.2529498058
 10
319.688537571
 20
-220.5674529113
 10
317.9131664709
 20
-216.8406314853
 10
316.2616332747
 20
-213.0825323794
 10
314.7383902238
 20
-209.3032867645
 10
313.3475437121
 20
-205.5130828186
 10
312.0928432161
 20
-201.7221382613
 10
310.9776711863
 20
-197.9406728091
 10
310.0050339295
 20
-194.1788806242
 10
309.1775535036
 20
-190.4469028333
 10
308.4974606497
 20
-186.7548001886
 10
307.9665887778
 20
-183.1125259462
 10
307.5863690246
 20
-179.5298990334
 10
307.3578263954
 20
-176.0165775791
 10
307.2815770007
 20
-172.5820328767
  0
LWPOLYLINE
  5
104
330
1F
100
AcDbEntity
  8
0
  6
Continuous
 62
     7
370
    25
100
AcDbPolyline
 90
       36
 70
   128
 43
0.0
 10
377.2851483382
 20
-116.0325343017
 10
378.089415398
 20
-116.5886678922
 10
378.7087436965
 20
-117.2187669911
 10
379.1232275125
 20
-117.9025796949
 10
379.3195449952
 20
-118.6181277007
 10
379.2913863392
 20
-119.3424127068
 10
379.0396565867
 20
-120.0521555972
 10
378.5724465392
 20
-120.7245446514
 10
377.9047727121
 20
-121.337968732
 10
377.0580946914
 20
-121.8727118842
 10
376.0596254055
 20
-122.3115870233
 10
374.9414564787
 20
-122.640488341
 10
373.7395267804
 20
-122.8488446785
 10
372.49246732
 20
-122.9299592916
 10
371.2403596146
 20
-122.8812250898
 10
370.0234474362
 20
-122.7042084307
 10
368.8808433435
 20
-122.4045987751
 10
367.849271572
 20
-121.9920258241
 10
366.9618876874
 20
-121.4797500116
 10
366.2472129378
 20
-120.8842363038
 10
365.7282175577
 20
-120.2246250013
 10
365.4215824857
 20
-119.522116554
 10
365.3371632253
 20
-118.7992901615
 10
365.4776730809
 20
-118.0793780587
 10
365.8385959503
 20
-117.3855188131
 10
366.4083314753
 20
-116.7400136316
 10
367.1685678875
 20
-116.163609582
 10
368.094870563
 20
-115.6748327646
 10
369.1574673717
 20
-115.2893928685
 10
370.3222055779
 20
-115.0196782491
 10
371.5516495372
 20
-114.8743577562
 10
372.8062839092
 20
-114.8581021101
 10
374.0457837129
 20
-114.9714337805
 10
375.2303104047
 20
-115.2107101944
 10
376.3217923221
 20
-115.5682408108
 10
377.2851483382
 20
-116.0325343017
  0
LWPOLYLINE
  5
105
330
1F
100
AcDbEntity
  8
0
  6
Continuous
 62
     7
370
    25
100
AcDbPolyline
 90
       31
 70
   128
 43
0.0
 10
375.8709347758
 20
-116.8489424135
 10
376.5287537096
 20
-117.3178955809
 10
377.0033030024
 20
-117.8555556247
 10
377.2738425729
 20
-118.438424221
 10
377.3285485437
 20
-119.0410272153
 10
377.1650300014
 20
-119.637027965
 10
376.7904334908
 20
-120.2003783776
 10
376.2211306772
 20
-120.7064573367
 10
375.4820028252
 20
-121.1331467633
 10
374.6053533686
 20
-121.4617982821
 10
373.6294960954
 20
-121.6780482446
 10
372.5970806511
 20
-121.7724454898
 10
371.5532285447
 20
-121.7408644051
 10
370.5435611222
 20
-121.5846852354
 10
369.6122056948
 20
-121.3107337599
 10
368.799866964
 20
-120.9309829726
 10
368.1420480302
 20
-120.4620298053
 10
367.6674987374
 20
-119.9243697615
 10
367.3969591669
 20
-119.3415011652
 10
367.3422531961
 20
-118.7388981709
 10
367.5057717385
 20
-118.1428974211
 10
367.880368249
 20
-117.5795470086
 10
368.4496710626
 20
-117.0734680495
 10
369.1887989147
 20
-116.6467786228
 10
370.0654483712
 20
-116.3181271041
 10
371.0413056444
 20
-116.1018771416
 10
372.0737210887
 20
-116.0074798964
 10
373.1175731951
 20
-116.0390609811
 10
374.1272406176
 20
-116.1952401508
 10
375.058596045
 20
-116.4691916263
 10
375.8709347758
 20
-116.8489424135
  0
LWPOLYLINE
  5
106
330
1F
100
AcDbEntity
  8
0
  6
Continuous
 62
     7
370
    25
100
AcDbPolyline
 90
       12
 70
   128
 43
0.0
 10
454.3305987623
 20
-54.8731415112
 10
454.6693672358
 20
-54.6939304507
 10
456.9289461106
 20
-53.640960549
 10
459.2890228371
 20
-52.7811903007
 10
461.7435391321
 20
-52.1168267237
 10
464.2861942876
 20
-51.6495752298
 10
466.9104613441
 20
-51.3806352468
 10
469.6096038458
 20
-51.3106971399
 10
472.3766931327
 20
-51.4399404391
 10
475.2046261261
 20
-51.7680333788
 10
478.0861435628
 20
-52.294133749
 10
480.5938062033
 20
-52.9018654314
  0
LWPOLYLINE
  5
107
330
1F
100
AcDbEntity
  8
0
  6
Continuous
 62
     7
370
    25
100
AcDbPolyline
 90
       49
 70
   128
 43
0.0
 10
494.5938062033
 20
-58.6619906533
 10
496.0790875776
 20
-59.4982298839
 10
499.1233090911
 20
-61.34470362
 10
502.1597161316
 20
-63.3646016116
 10
505.1805142859
 20
-65.5527388094
 10
508.1779492083
 20
-67.9034982967
 10
511.1443265265
 20
-70.4108457075
 10
514.0720315923
 20
-73.068344717
 10
516.953549029
 20
-75.8691735634
 10
519.7814820224
 20
-78.8061425591
 10
522.5485713093
 20
-81.871712547
 10
525.247713811
 20
-85.0580142528
 10
527.8719808675
 20
-88.3568684857
 10
530.414636023
 20
-91.7598071343
 10
532.869152318
 20
-95.2580949037
 10
535.2292290445
 20
-98.8427517396
 10
537.4888079193
 20
-102.5045758791
 10
539.642088636
 20
-106.2341674723
 10
541.6835437537
 20
-110.021952711
 10
543.6079328864
 20
-113.8582084049
 10
545.4103161549
 20
-117.7330869406
 10
547.0860668672
 20
-121.6366415604
 10
548.6308833951
 20
-125.5588518957
 10
550.0408002169
 20
-129.4896496887
 10
551.3121980963
 20
-133.4189446379
 10
552.4418133732
 20
-137.3366502996
 10
553.4267463413
 20
-141.2327099795
 10
554.2644686918
 20
-145.0971225482
 10
554.9528300035
 20
-148.9199681141
 10
555.4900632628
 20
-152.6914334875
 10
555.8747893996
 20
-156.4018373709
 10
556.1060208274
 20
-160.0416552107
 10
556.1831639784
 20
-163.6015436467
 10
556.1060208274
 20
-167.0723644963
 10
555.8747893996
 20
-170.4452082123
 10
555.4900632628
 20
-173.7114167531
 10
554.9528300035
 20
-176.8626058083
 10
554.2644686918
 20
-179.8906863208
 10
553.4267463413
 20
-182.7878852513
 10
552.4418133732
 20
-185.5467655317
 10
551.3121980963
 20
-188.160245156
 10
550.0408002169
 20
-190.6216153593
 10
548.6308833951
 20
-192.9245578398
 10
547.0860668672
 20
-195.063160977
 10
545.4103161549
 20
-197.0319350074
 10
543.6079328864
 20
-198.8258261163
 10
541.6835437537
 20
-200.440229411
 10
539.642088636
 20
-201.8710007413
 10
539.3112106978
 20
-202.0787536522
  0
SPLINE
  5
108
330
1F
100
AcDbEntity
  8
0
  6
Continuous
 62
     7
370
    25
100
AcDbSpline
210
0.0
220
0.0
230
1.0
 70
     8
 71
     3
 72
    12
 73
     8
 74
     0
 42
0.00000001
 43
0.00000001
 40
0.0
 40
0.0
 40
0.0
 40
0.0
 40
0.2138400047088773
 40
0.4277075584287294
 40
0.6408742215681505
 40
0.8536172334580232
 40
0.9999999999999999
 40
0.9999999999999999
 40
0.9999999999999999
 40
0.9999999999999999
 10
487.6359236919202
 20
-68.2507620708904
 30
0.0
 10
486.8496117681914
 20
-68.17455668156863
 30
0.0
 10
485.2768866201569
 20
-68.0221360853836
 30
0.0
 10
483.1697131412661
 20
-67.27896259707103
 30
0.0
 10
481.5920881810592
 20
-66.27201247539479
 30
0.0
 10
480.6862473146821
 20
-65.19816838626505
 30
0.0
 10
480.6809584189617
 20
-64.49366211911834
 30
0.0
 10
480.6788026194229
 20
-64.20649928474477
 30
0.0
  0
SPLINE
  5
109
330
1F
100
AcDbEntity
  8
0
  6
Continuous
 62
     7
370
    25
100
AcDbSpline
210
0.0
220
0.0
230
1.0
 70
     8
 71
     3
 72
    12
 73
     8
 74
     0
 42
0.00000001
 43
0.00000001
 40
0.0
 40
0.0
 40
0.0
 40
0.0
 40
0.214605169279649
 40
0.429936833545051
 40
0.6447761688849114
 40
0.8596611365452552
 40
1.0
 40
1.0
 40
1.0
 40
1.0
 10
494.5921562787311
 20
-64.37804649852995
 30
0.0
 10
494.5160923555059
 20
-64.8458183536674
 30
0.0
 10
494.3637070126541
 20
-65.7829455947975
 30
0.0
 10
493.1617515351407
 20
-66.99565975831548
 30
0.0
 10
491.3920360965326
 20
-67.85952673442699
 30
0.0
 10
489.4371747793167
 20
-68.2590976030857
 30
0.0
 10
488.1460216738138
 20
-68.25312261805708
 30
0.0
 10
487.6359236919202
 20
-68.2507620708904
 30
0.0
  0
LWPOLYLINE
  5
10A
330
1F
100
AcDbEntity
  8
0
  6
Continuous
 62
     7
370
    25
100
AcDbPolyline
 90
       36
 70
   128
 43
0.0
 10
482.644058735
 20
-55.2101299709
 10
481.8397916752
 20
-54.6539963804
 10
481.2204633767
 20
-54.0238972815
 10
480.8059795607
 20
-53.3400845777
 10
480.609662078
 20
-52.6245365719
 10
480.6378207341
 20
-51.9002515658
 10
480.8895504865
 20
-51.1905086754
 10
481.356760534
 20
-50.5181196212
 10
482.0244343611
 20
-49.9046955406
 10
482.8711123818
 20
-49.3699523884
 10
483.8695816677
 20
-48.9310772493
 10
484.9877505945
 20
-48.6021759316
 10
486.1896802928
 20
-48.3938195941
 10
487.4367397532
 20
-48.312704981
 10
488.6888474586
 20
-48.3614391828
 10
489.905759637
 20
-48.5384558419
 10
491.0483637298
 20
-48.8380654975
 10
492.0799355012
 20
-49.2506384485
 10
492.9673193858
 20
-49.762914261
 10
493.6819941354
 20
-50.3584279688
 10
494.2009895155
 20
-51.0180392713
 10
494.5076245875
 20
-51.7205477186
 10
494.5920438479
 20
-52.4433741111
 10
494.4515339923
 20
-53.1632862139
 10
494.0906111229
 20
-53.8571454595
 10
493.5208755979
 20
-54.502650641
 10
492.7606391857
 20
-55.0790546906
 10
491.8343365102
 20
-55.567831508
 10
490.7717397015
 20
-55.9532714041
 10
489.6070014953
 20
-56.2229860235
 10
488.377557536
 20
-56.3683065164
 10
487.122923164
 20
-56.3845621625
 10
485.8834233603
 20
-56.2712304921
 10
484.6988966685
 20
-56.0319540782
 10
483.6074147511
 20
-55.6744234618
 10
482.644058735
 20
-55.2101299709
  0
LWPOLYLINE
  5
10B
330
1F
100
AcDbEntity
  8
0
  6
Continuous
 62
     7
370
    25
100
AcDbPolyline
 90
       31
 70
   128
 43
0.0
 10
484.0582722974
 20
-54.3937218591
 10
483.4004533636
 20
-53.9247686917
 10
482.9259040708
 20
-53.3871086479
 10
482.6553645003
 20
-52.8042400516
 10
482.6006585295
 20
-52.2016370573
 10
482.7641770719
 20
-51.6056363076
 10
483.1387735824
 20
-51.042285895
 10
483.708076396
 20
-50.5362069359
 10
484.4472042481
 20
-50.1095175093
 10
485.3238537046
 20
-49.7808659905
 10
486.2997109778
 20
-49.564616028
 10
487.3321264221
 20
-49.4702187828
 10
488.3759785285
 20
-49.5017998675
 10
489.385645951
 20
-49.6579790372
 10
490.3170013784
 20
-49.9319305127
 10
491.1293401092
 20
-50.3116813
 10
491.787159043
 20
-50.7806344673
 10
492.2617083358
 20
-51.3182945111
 10
492.5322479063
 20
-51.9011631075
 10
492.5869538771
 20
-52.5037661017
 10
492.4234353348
 20
-53.0997668515
 10
492.0488388243
 20
-53.663117264
 10
491.4795360106
 20
-54.1691962231
 10
490.7404081586
 20
-54.5958856498
 10
489.863758702
 20
-54.9245371685
 10
488.8879014288
 20
-55.140787131
 10
487.8554859845
 20
-55.2351843762
 10
486.8116338781
 20
-55.2036032915
 10
485.8019664556
 20
-55.0474241218
 10
484.8706110282
 20
-54.7734726463
 10
484.0582722974
 20
-54.3937218591
  0
LWPOLYLINE
  5
10C
330
1F
100
AcDbEntity
  8
0
  6
Continuous
 62
     1
370
    25
100
AcDbPolyline
 90
       65
 70
   128
 43
0.0
 10
378.1291457082
 20
-97.6936945225
 10
378.9438905272
 20
-97.2408412623
 10
381.198012104
 20
-96.1586005332
 10
383.5529946594
 20
-95.268380868
 10
386.002889303
 20
-94.5724310387
 10
388.5415073885
 20
-94.0725090751
 10
391.1624361461
 20
-93.7698778235
 10
393.8590548824
 20
-93.6653017566
 10
396.6245517044
 20
-93.7590450426
 10
399.4519407271
 20
-94.0508708779
 10
402.3340797205
 20
-94.5400420852
 10
405.2636881513
 20
-95.2253229754
 10
408.2333655744
 20
-96.1049824695
 10
411.2356103269
 20
-97.1767984715
 10
414.262838478
 20
-98.4380634809
 10
417.3074029866
 20
-99.8855914329
 10
420.3616130186
 20
-101.5157257463
 10
423.4177533743
 20
-103.3243485604
 10
426.468103978
 20
-105.3068911369
 10
429.5049593793
 20
-107.4583454013
 10
432.5206482179
 20
-109.7732765933
 10
435.5075526022
 20
-112.2458369958
 10
438.4581273523
 20
-114.8697807067
 10
441.3649190603
 20
-117.6384794165
 10
444.2205849183
 20
-120.5449391518
 10
447.0179112663
 20
-123.5818179433
 10
449.7498318152
 20
-126.7414443714
 10
452.4094454967
 20
-130.0158369456
 10
454.9900338957
 20
-133.3967242661
 10
457.4850782219
 20
-136.8755659181
 10
459.888275777
 20
-140.4435740456
 10
462.1935558753
 20
-144.0917355505
 10
464.3950951791
 20
-147.8108348602
 10
466.4873324092
 20
-151.5914772071
 10
468.4649823927
 20
-155.4241123604
 10
470.3230494141
 20
-159.2990587512
 10
472.0568398349
 20
-163.2065279286
 10
473.6619739499
 20
-167.1366492862
 10
475.1343970512
 20
-171.0794949966
 10
476.4703896702
 20
-175.0251050891
 10
477.6665769735
 20
-178.9635126103
 10
478.7199372882
 20
-182.8847688011
 10
479.6278097348
 20
-186.7789682278
 10
480.3879009486
 20
-190.6362738049
 10
480.9982908733
 20
-194.4469416436
 10
481.457437611
 20
-198.2013456663
 10
481.7641813171
 20
-201.8900019225
 10
481.9177471305
 20
-205.5035925465
 10
481.9177471305
 20
-209.0329892947
 10
481.7641813171
 20
-212.4692766047
 10
481.457437611
 20
-215.8037741163
 10
480.9982908733
 20
-219.0280585996
 10
480.3879009486
 20
-222.1339852321
 10
479.6278097348
 20
-225.1137081735
 10
478.7199372882
 20
-227.9597003852
 10
477.6665769735
 20
-230.6647726437
 10
476.4703896702
 20
-233.2220917018
 10
475.1343970512
 20
-235.6251975497
 10
473.6619739499
 20
-237.8680197333
 10
472.0568398349
 20
-239.9448926892
 10
470.3230494141
 20
-241.8505700561
 10
468.4649823927
 20
-243.5802379275
 10
466.4873324092
 20
-245.1295270123
 10
464.3950951791
 20
-246.4945236717
 10
464.1223257156
 20
-246.6540012895
  0
LWPOLYLINE
  5
10D
330
1F
100
AcDbEntity
  8
0
  6
Continuous
 62
     1
370
    25
100
AcDbPolyline
 90
       65
 70
   128
 43
0.0
 10
395.8069327981
 20
-87.4885252583
 10
396.6215600568
 20
-87.0357398645
 10
398.8756816336
 20
-85.9534991354
 10
401.230664189
 20
-85.0632794702
 10
403.6805588327
 20
-84.3673296409
 10
406.2191769181
 20
-83.8674076773
 10
408.8401056757
 20
-83.5647764257
 10
411.536724412
 20
-83.4602003588
 10
414.302221234
 20
-83.5539436448
 10
417.1296102568
 20
-83.8457694802
 10
420.0117492501
 20
-84.3349406874
 10
422.941357681
 20
-85.0202215776
 10
425.9110351041
 20
-85.8998810718
 10
428.9132798566
 20
-86.9716970737
 10
431.9405080076
 20
-88.2329620831
 10
434.9850725163
 20
-89.6804900351
 10
438.0392825482
 20
-91.3106243486
 10
441.0954229039
 20
-93.1192471626
 10
444.1457735077
 20
-95.1017897391
 10
447.182628909
 20
-97.2532440035
 10
450.1983177476
 20
-99.5681751955
 10
453.1852221318
 20
-102.040735598
 10
456.1357968819
 20
-104.6646793089
 10
459.04258859
 20
-107.4333780187
 10
461.8982544479
 20
-110.3398377541
 10
464.6955807959
 20
-113.3767165455
 10
467.4275013449
 20
-116.5363429736
 10
470.0871150263
 20
-119.8107355478
 10
472.6677034253
 20
-123.1916228683
 10
475.1627477516
 20
-126.6704645203
 10
477.5659453067
 20
-130.2384726478
 10
479.8712254049
 20
-133.8866341527
 10
482.0727647088
 20
-137.6057334624
 10
484.1650019389
 20
-141.3863758093
 10
486.1426519224
 20
-145.2190109626
 10
488.0007189438
 20
-149.0939573534
 10
489.7345093645
 20
-153.0014265308
 10
491.3396434796
 20
-156.9315478884
 10
492.8120665809
 20
-160.8743935988
 10
494.1480591998
 20
-164.8200036913
 10
495.3442465031
 20
-168.7584112126
 10
496.3976068179
 20
-172.6796674033
 10
497.3054792645
 20
-176.57386683
 10
498.0655704783
 20
-180.4311724071
 10
498.675960403
 20
-184.2418402458
 10
499.1351071407
 20
-187.9962442685
 10
499.4418508468
 20
-191.6849005248
 10
499.5954166601
 20
-195.2984911488
 10
499.5954166601
 20
-198.827887897
 10
499.4418508468
 20
-202.2641752069
 10
499.1351071407
 20
-205.5986727185
 10
498.675960403
 20
-208.8229572018
 10
498.0655704783
 20
-211.9288838343
 10
497.3054792645
 20
-214.9086067757
 10
496.3976068179
 20
-217.7545989874
 10
495.3442465031
 20
-220.4596712459
 10
494.1480591998
 20
-223.0169903041
 10
492.8120665809
 20
-225.4200961519
 10
491.3396434796
 20
-227.6629183355
 10
489.7345093645
 20
-229.7397912914
 10
488.0007189438
 20
-231.6454686583
 10
486.1426519223
 20
-233.3751365297
 10
484.1650019389
 20
-234.9244256145
 10
482.0727647088
 20
-236.2894222739
 10
481.7999438048
 20
-236.4489295878
  0
ENDSEC
  0
SECTION
  2
OBJECTS
  0
DICTIONARY
  5
C
330
0
100
AcDbDictionary
281
     1
  3
ACAD_GROUP
350
D
  3
ACAD_LAYOUT
350
1A
  3
ACAD_MLINESTYLE
350
17
  3
ACAD_PLOTSETTINGS
350
19
  3
ACAD_PLOTSTYLENAME
350
E
  3
ACAD_SCALELIST
350
47
  3
DWGPROPS
350
10E
  0
DICTIONARY
  5
D
102
{ACAD_REACTORS
330
C
102
}
330
C
100
AcDbDictionary
281
     1
  0
DICTIONARY
  5
1A
102
{ACAD_REACTORS
330
C
102
}
330
C
100
AcDbDictionary
281
     1
  3
Layout1
350
1E
  3
Layout2
350
26
  3
Model
350
22
  0
DICTIONARY
  5
17
102
{ACAD_REACTORS
330
C
102
}
330
C
100
AcDbDictionary
281
     1
  3
Standard
350
18
  0
DICTIONARY
  5
19
102
{ACAD_REACTORS
330
C
102
}
330
C
100
AcDbDictionary
281
     1
  0
ACDBDICTIONARYWDFLT
  5
E
102
{ACAD_REACTORS
330
C
102
}
330
C
100
AcDbDictionary
281
     1
  3
Normal
350
F
100
AcDbDictionaryWithDefault
340
F
  0
DICTIONARY
  5
47
102
{ACAD_REACTORS
330
C
102
}
330
C
100
AcDbDictionary
281
     1
  3
A0
350
48
  3
A1
350
49
  3
A2
350
4A
  3
A3
350
4B
  3
A4
350
4C
  3
A5
350
4D
  3
A6
350
4E
  3
A7
350
4F
  3
A8
350
50
  3
A9
350
51
  3
B0
350
52
  3
B1
350
53
  3
B2
350
54
  3
B3
350
55
  3
B4
350
56
  3
B5
350
57
  3
B6
350
58
  3
B7
350
59
  3
B8
350
5A
  3
B9
350
5B
  3
C0
350
5C
  3
C1
350
5D
  3
C2
350
5E
  3
C3
350
5F
  3
C4
350
60
  3
C5
350
61
  3
C6
350
62
  3
C7
350
63
  3
C8
350
64
  3
C9
350
65
  3
D0
350
66
  3
D1
350
67
  3
D2
350
68
  0
XRECORD
  5
10E
102
{ACAD_REACTORS
330
C
102
}
330
C
100
AcDbXrecord
280
     1
  1
DWGPROPS COOKIE
  2

  3

  4

  6

  7

  8
b.kav
  9

300
=
301
=
302
=
303
=
304
=
305
=
306
=
307
=
308
=
309
=
 40
0.0
 41
2460390.230063565
 42
2460390.23006375
  1

 90
        0
  0
LAYOUT
  5
1E
102
{ACAD_REACTORS
330
1A
102
}
330
1A
100
AcDbPlotSettings
  1

  2
none_device
  4

  6

 40
0.0
 41
0.0
 42
0.0
 43
0.0
 44
0.0
 45
0.0
 46
0.0
 47
0.0
 48
0.0
 49
0.0
140
0.0
141
0.0
142
1.0
143
1.0
 70
   688
 72
     1
 73
     0
 74
     5
  7

 75
    16
147
1.0
148
0.0
149
0.0
100
AcDbLayout
  1
Layout1
 70
     1
 71
     1
 10
0.0
 20
0.0
 11
420.0
 21
297.0
 12
0.0
 22
0.0
 32
0.0
 14
1.0000000000E+20
 24
1.0000000000E+20
 34
1.0000000000E+20
 15
-1.0000000000E+20
 25
-1.0000000000E+20
 35
-1.0000000000E+20
146
0.0
 13
0.0
 23
0.0
 33
0.0
 16
1.0
 26
0.0
 36
0.0
 17
0.0
 27
1.0
 37
0.0
 76
     0
330
1B
  0
LAYOUT
  5
26
102
{ACAD_REACTORS
330
1A
102
}
330
1A
100
AcDbPlotSettings
  1

  2
none_device
  4

  6

 40
0.0
 41
0.0
 42
0.0
 43
0.0
 44
0.0
 45
0.0
 46
0.0
 47
0.0
 48
0.0
 49
0.0
140
0.0
141
0.0
142
1.0
143
1.0
 70
   688
 72
     1
 73
     0
 74
     5
  7

 75
    16
147
1.0
148
0.0
149
0.0
100
AcDbLayout
  1
Layout2
 70
     1
 71
     2
 10
0.0
 20
0.0
 11
0.0
 21
0.0
 12
0.0
 22
0.0
 32
0.0
 14
0.0
 24
0.0
 34
0.0
 15
0.0
 25
0.0
 35
0.0
146
0.0
 13
0.0
 23
0.0
 33
0.0
 16
1.0
 26
0.0
 36
0.0
 17
0.0
 27
1.0
 37
0.0
 76
     0
330
23
  0
LAYOUT
  5
22
102
{ACAD_REACTORS
330
1A
102
}
330
1A
100
AcDbPlotSettings
  1

  2
none_device
  4
Letter_(8.50_x_11.00_Inches)
  6

 40
6.35
 41
6.35
 42
6.35000508
 43
6.35000508
 44
215.9
 45
279.4
 46
0.0
 47
0.0
 48
0.0
 49
0.0
140
0.0
141
0.0
142
1.0
143
1.0
 70
  1712
 72
     1
 73
     0
 74
     0
  7

 75
     0
147
1.0
148
0.0
149
0.0
100
AcDbLayout
  1
Model
 70
     1
 71
     0
 10
0.0
 20
0.0
 11
279.4
 21
215.9
 12
0.0
 22
0.0
 32
0.0
 14
0.0
 24
0.0
 34
0.0
 15
279.4
 25
215.9
 35
0.0
146
0.0
 13
0.0
 23
0.0
 33
0.0
 16
1.0
 26
0.0
 36
0.0
 17
0.0
 27
1.0
 37
0.0
 76
     0
330
1F
331
29
  0
MLINESTYLE
  5
18
102
{ACAD_REACTORS
330
17
102
}
330
17
100
AcDbMlineStyle
  2
Standard
 70
     0
  3

 62
   256
 51
90.0
 52
90.0
 71
     2
 49
0.5
 62
   256
  6
BYLAYER
 49
-0.5
 62
   256
  6
BYLAYER
  0
ACDBPLACEHOLDER
  5
F
102
{ACAD_REACTORS
330
E
102
}
330
E
  0
SCALE
  5
48
102
{ACAD_REACTORS
330
47
102
}
330
47
100
AcDbScale
 70
     0
300
1:1
140
1.0
141
1.0
290
     1
  0
SCALE
  5
49
102
{ACAD_REACTORS
330
47
102
}
330
47
100
AcDbScale
 70
     0
300
1:2
140
1.0
141
2.0
290
     0
  0
SCALE
  5
4A
102
{ACAD_REACTORS
330
47
102
}
330
47
100
AcDbScale
 70
     0
300
1:4
140
1.0
141
4.0
290
     0
  0
SCALE
  5
4B
102
{ACAD_REACTORS
330
47
102
}
330
47
100
AcDbScale
 70
     0
300
1:5
140
1.0
141
5.0
290
     0
  0
SCALE
  5
4C
102
{ACAD_REACTORS
330
47
102
}
330
47
100
AcDbScale
 70
     0
300
1:8
140
1.0
141
8.0
290
     0
  0
SCALE
  5
4D
102
{ACAD_REACTORS
330
47
102
}
330
47
100
AcDbScale
 70
     0
300
1:10
140
1.0
141
10.0
290
     0
  0
SCALE
  5
4E
102
{ACAD_REACTORS
330
47
102
}
330
47
100
AcDbScale
 70
     0
300
1:16
140
1.0
141
16.0
290
     0
  0
SCALE
  5
4F
102
{ACAD_REACTORS
330
47
102
}
330
47
100
AcDbScale
 70
     0
300
1:20
140
1.0
141
20.0
290
     0
  0
SCALE
  5
50
102
{ACAD_REACTORS
330
47
102
}
330
47
100
AcDbScale
 70
     0
300
1:30
140
1.0
141
30.0
290
     0
  0
SCALE
  5
51
102
{ACAD_REACTORS
330
47
102
}
330
47
100
AcDbScale
 70
     0
300
1:40
140
1.0
141
40.0
290
     0
  0
SCALE
  5
52
102
{ACAD_REACTORS
330
47
102
}
330
47
100
AcDbScale
 70
     0
300
1:50
140
1.0
141
50.0
290
     0
  0
SCALE
  5
53
102
{ACAD_REACTORS
330
47
102
}
330
47
100
AcDbScale
 70
     0
300
1:100
140
1.0
141
100.0
290
     0
  0
SCALE
  5
54
102
{ACAD_REACTORS
330
47
102
}
330
47
100
AcDbScale
 70
     0
300
2:1
140
2.0
141
1.0
290
     0
  0
SCALE
  5
55
102
{ACAD_REACTORS
330
47
102
}
330
47
100
AcDbScale
 70
     0
300
4:1
140
4.0
141
1.0
290
     0
  0
SCALE
  5
56
102
{ACAD_REACTORS
330
47
102
}
330
47
100
AcDbScale
 70
     0
300
8:1
140
8.0
141
1.0
290
     0
  0
SCALE
  5
57
102
{ACAD_REACTORS
330
47
102
}
330
47
100
AcDbScale
 70
     0
300
10:1
140
10.0
141
1.0
290
     0
  0
SCALE
  5
58
102
{ACAD_REACTORS
330
47
102
}
330
47
100
AcDbScale
 70
     0
300
100:1
140
100.0
141
1.0
290
     0
  0
SCALE
  5
59
102
{ACAD_REACTORS
330
47
102
}
330
47
100
AcDbScale
 70
     0
300
1/128" = 1'-0"
140
0.0078125
141
12.0
290
     0
  0
SCALE
  5
5A
102
{ACAD_REACTORS
330
47
102
}
330
47
100
AcDbScale
 70
     0
300
1/64" = 1'-0"
140
0.015625
141
12.0
290
     0
  0
SCALE
  5
5B
102
{ACAD_REACTORS
330
47
102
}
330
47
100
AcDbScale
 70
     0
300
1/32" = 1'-0"
140
0.03125
141
12.0
290
     0
  0
SCALE
  5
5C
102
{ACAD_REACTORS
330
47
102
}
330
47
100
AcDbScale
 70
     0
300
1/16" = 1'-0"
140
0.0625
141
12.0
290
     0
  0
SCALE
  5
5D
102
{ACAD_REACTORS
330
47
102
}
330
47
100
AcDbScale
 70
     0
300
3/32" = 1'-0"
140
0.09375
141
12.0
290
     0
  0
SCALE
  5
5E
102
{ACAD_REACTORS
330
47
102
}
330
47
100
AcDbScale
 70
     0
300
1/8" = 1'-0"
140
0.125
141
12.0
290
     0
  0
SCALE
  5
5F
102
{ACAD_REACTORS
330
47
102
}
330
47
100
AcDbScale
 70
     0
300
3/16" = 1'-0"
140
0.1875
141
12.0
290
     0
  0
SCALE
  5
60
102
{ACAD_REACTORS
330
47
102
}
330
47
100
AcDbScale
 70
     0
300
1/4" = 1'-0"
140
0.25
141
12.0
290
     0
  0
SCALE
  5
61
102
{ACAD_REACTORS
330
47
102
}
330
47
100
AcDbScale
 70
     0
300
3/8" = 1'-0"
140
0.375
141
12.0
290
     0
  0
SCALE
  5
62
102
{ACAD_REACTORS
330
47
102
}
330
47
100
AcDbScale
 70
     0
300
1/2" = 1'-0"
140
0.5
141
12.0
290
     0
  0
SCALE
  5
63
102
{ACAD_REACTORS
330
47
102
}
330
47
100
AcDbScale
 70
     0
300
3/4" = 1'-0"
140
0.75
141
12.0
290
     0
  0
SCALE
  5
64
102
{ACAD_REACTORS
330
47
102
}
330
47
100
AcDbScale
 70
     0
300
1" = 1'-0"
140
1.0
141
12.0
290
     0
  0
SCALE
  5
65
102
{ACAD_REACTORS
330
47
102
}
330
47
100
AcDbScale
 70
     0
300
1-1/2" = 1'-0"
140
1.5
141
12.0
290
     0
  0
SCALE
  5
66
102
{ACAD_REACTORS
330
47
102
}
330
47
100
AcDbScale
 70
     0
300
3" = 1'-0"
140
3.0
141
12.0
290
     0
  0
SCALE
  5
67
102
{ACAD_REACTORS
330
47
102
}
330
47
100
AcDbScale
 70
     0
300
6" = 1'-0"
140
6.0
141
12.0
290
     0
  0
SCALE
  5
68
102
{ACAD_REACTORS
330
47
102
}
330
47
100
AcDbScale
 70
     0
300
1'-0" = 1'-0"
140
12.0
141
12.0
290
     0
  0
ENDSEC
  0
EOF
